ISO-10303-21;
HEADER;
FILE_DESCRIPTION(('STEP AP214'),'1');
FILE_NAME('AH-3,5X250.stp','2023-07-31T07:14:25',(' '),(' '),'Spatial InterOp 3D',' ',' ');
FILE_SCHEMA(('automotive_design'));
ENDSEC;
DATA;
#1=MECHANICAL_DESIGN_GEOMETRIC_PRESENTATION_REPRESENTATION(' ',(#10,#11,#12,#13,#14,#15,#16,#17,#18,#19,#20,#21,#22,#23),#6);
#2=PRODUCT_DEFINITION_CONTEXT('',#24,'design');
#3=APPLICATION_PROTOCOL_DEFINITION('INTERNATIONAL STANDARD','automotive_design',1994,#24);
#4=PRODUCT_CATEGORY_RELATIONSHIP('NONE','NONE',#25,#26);
#5=SHAPE_DEFINITION_REPRESENTATION(#27,#28);
#6= (GEOMETRIC_REPRESENTATION_CONTEXT(3)GLOBAL_UNCERTAINTY_ASSIGNED_CONTEXT((#31))GLOBAL_UNIT_ASSIGNED_CONTEXT((#33,#34,#35))REPRESENTATION_CONTEXT('NONE','WORKSPACE'));
#10=STYLED_ITEM('',(#37,#38),#39);
#11=STYLED_ITEM('',(#40,#41),#42);
#12=STYLED_ITEM('',(#43,#44),#45);
#13=STYLED_ITEM('',(#46,#47),#48);
#14=STYLED_ITEM('',(#49,#50),#51);
#15=STYLED_ITEM('',(#52),#53);
#16=STYLED_ITEM('',(#54),#55);
#17=STYLED_ITEM('',(#56),#57);
#18=STYLED_ITEM('',(#58),#59);
#19=STYLED_ITEM('',(#60),#61);
#20=STYLED_ITEM('',(#62),#63);
#21=STYLED_ITEM('',(#64),#65);
#22=STYLED_ITEM('',(#66),#67);
#23=STYLED_ITEM('',(#68),#69);
#24=APPLICATION_CONTEXT(' ');
#25=PRODUCT_CATEGORY('part','NONE');
#26=PRODUCT_RELATED_PRODUCT_CATEGORY('detail',' ',(#70));
#27=PRODUCT_DEFINITION_SHAPE('NONE','NONE',#71);
#28=ADVANCED_BREP_SHAPE_REPRESENTATION('1',(#69,#72),#6);
#31=UNCERTAINTY_MEASURE_WITH_UNIT(LENGTH_MEASURE(1.0E-006),#33,'','');
#33= (CONVERSION_BASED_UNIT('METRE',#75)LENGTH_UNIT()NAMED_UNIT(#78));
#34= (NAMED_UNIT(#80)PLANE_ANGLE_UNIT()SI_UNIT($,.RADIAN.));
#35= (NAMED_UNIT(#80)SOLID_ANGLE_UNIT()SI_UNIT($,.STERADIAN.));
#37=PRESENTATION_STYLE_ASSIGNMENT((#86));
#38=PRESENTATION_STYLE_ASSIGNMENT((#87));
#39=ADVANCED_FACE('',(#88,#89),#90,.T.);
#40=PRESENTATION_STYLE_ASSIGNMENT((#91));
#41=PRESENTATION_STYLE_ASSIGNMENT((#92));
#42=ADVANCED_FACE('',(#93),#94,.T.);
#43=PRESENTATION_STYLE_ASSIGNMENT((#95));
#44=PRESENTATION_STYLE_ASSIGNMENT((#96));
#45=ADVANCED_FACE('',(#97,#98),#99,.T.);
#46=PRESENTATION_STYLE_ASSIGNMENT((#100));
#47=PRESENTATION_STYLE_ASSIGNMENT((#101));
#48=ADVANCED_FACE('',(#102),#103,.T.);
#49=PRESENTATION_STYLE_ASSIGNMENT((#104));
#50=PRESENTATION_STYLE_ASSIGNMENT((#105));
#51=ADVANCED_FACE('',(#106,#107),#108,.T.);
#52=PRESENTATION_STYLE_ASSIGNMENT((#109));
#53=EDGE_CURVE('',#110,#111,#112,.T.);
#54=PRESENTATION_STYLE_ASSIGNMENT((#113));
#55=EDGE_CURVE('',#111,#110,#114,.T.);
#56=PRESENTATION_STYLE_ASSIGNMENT((#115));
#57=EDGE_CURVE('',#116,#117,#118,.T.);
#58=PRESENTATION_STYLE_ASSIGNMENT((#119));
#59=EDGE_CURVE('',#117,#116,#120,.T.);
#60=PRESENTATION_STYLE_ASSIGNMENT((#121));
#61=EDGE_CURVE('',#122,#123,#124,.T.);
#62=PRESENTATION_STYLE_ASSIGNMENT((#125));
#63=EDGE_CURVE('',#122,#123,#126,.T.);
#64=PRESENTATION_STYLE_ASSIGNMENT((#127));
#65=EDGE_CURVE('',#128,#129,#130,.T.);
#66=PRESENTATION_STYLE_ASSIGNMENT((#131));
#67=EDGE_CURVE('',#129,#128,#132,.T.);
#68=PRESENTATION_STYLE_ASSIGNMENT((#133));
#69=MANIFOLD_SOLID_BREP('1',#134);
#70=PRODUCT('1','1','PART-1-DESC',(#135));
#71=PRODUCT_DEFINITION('NONE','NONE',#136,#2);
#72=AXIS2_PLACEMENT_3D('',#137,#138,#139);
#75=LENGTH_MEASURE_WITH_UNIT(LENGTH_MEASURE(1.0),#140);
#78=DIMENSIONAL_EXPONENTS(1.0,0.0,0.0,0.0,0.0,0.0,0.0);
#80=DIMENSIONAL_EXPONENTS(0.0,0.0,0.0,0.0,0.0,0.0,0.0);
#86=SURFACE_STYLE_USAGE(.BOTH.,#141);
#87=CURVE_STYLE('',#142,POSITIVE_LENGTH_MEASURE(1.0),#143);
#88=FACE_OUTER_BOUND('',#144,.T.);
#89=FACE_OUTER_BOUND('',#145,.T.);
#90=SURFACE_OF_REVOLUTION('',#146,#147);
#91=SURFACE_STYLE_USAGE(.BOTH.,#148);
#92=CURVE_STYLE('',#149,POSITIVE_LENGTH_MEASURE(1.0),#150);
#93=FACE_OUTER_BOUND('',#151,.T.);
#94=PLANE('',#152);
#95=SURFACE_STYLE_USAGE(.BOTH.,#153);
#96=CURVE_STYLE('',#154,POSITIVE_LENGTH_MEASURE(1.0),#155);
#97=FACE_BOUND('',#156,.T.);
#98=FACE_OUTER_BOUND('',#157,.T.);
#99=PLANE('',#158);
#100=SURFACE_STYLE_USAGE(.BOTH.,#159);
#101=CURVE_STYLE('',#160,POSITIVE_LENGTH_MEASURE(1.0),#161);
#102=FACE_OUTER_BOUND('',#162,.T.);
#103=PLANE('',#163);
#104=SURFACE_STYLE_USAGE(.BOTH.,#164);
#105=CURVE_STYLE('',#165,POSITIVE_LENGTH_MEASURE(1.0),#166);
#106=FACE_OUTER_BOUND('',#167,.T.);
#107=FACE_OUTER_BOUND('',#168,.T.);
#108=SURFACE_OF_REVOLUTION('',#169,#170);
#109=CURVE_STYLE('',#171,POSITIVE_LENGTH_MEASURE(1.0),#172);
#110=VERTEX_POINT('',#173);
#111=VERTEX_POINT('',#174);
#112=B_SPLINE_CURVE_WITH_KNOTS('',2,(#175,#176,#177,#178,#179,#180,#181,#182,#183,#184,#185,#186,#187,#188,#189,#190,#191),.UNSPECIFIED.,.F.,.F.,(3,2,2,2,2,2,2,2,3),(0.0,0.125,0.25,0.375,0.5,0.625,0.75,0.875,1.0),.UNSPECIFIED.);
#113=CURVE_STYLE('',#192,POSITIVE_LENGTH_MEASURE(1.0),#193);
#114=B_SPLINE_CURVE_WITH_KNOTS('',2,(#194,#195,#196,#197,#198,#199,#200,#201,#202,#203,#204,#205,#206,#207,#208,#209,#210),.UNSPECIFIED.,.F.,.F.,(3,2,2,2,2,2,2,2,3),(0.0,0.125,0.25,0.375,0.5,0.625,0.75,0.875,1.0),.UNSPECIFIED.);
#115=CURVE_STYLE('',#211,POSITIVE_LENGTH_MEASURE(1.0),#212);
#116=VERTEX_POINT('',#213);
#117=VERTEX_POINT('',#214);
#118=(B_SPLINE_CURVE(3,(#216,#217,#218,#219),.UNSPECIFIED.,.F.,.F.)B_SPLINE_CURVE_WITH_KNOTS((4,4),(0.0,1.0),.UNSPECIFIED.)RATIONAL_B_SPLINE_CURVE((1.0,0.333333333333333,0.333333333333333,1.0))BOUNDED_CURVE()REPRESENTATION_ITEM('')GEOMETRIC_REPRESENTATION_ITEM()CURVE());
#119=CURVE_STYLE('',#226,POSITIVE_LENGTH_MEASURE(1.0),#227);
#120=(B_SPLINE_CURVE(3,(#229,#230,#231,#232),.UNSPECIFIED.,.F.,.F.)B_SPLINE_CURVE_WITH_KNOTS((4,4),(0.0,1.0),.UNSPECIFIED.)RATIONAL_B_SPLINE_CURVE((1.0,0.333333333333333,0.333333333333333,1.0))BOUNDED_CURVE()REPRESENTATION_ITEM('')GEOMETRIC_REPRESENTATION_ITEM()CURVE());
#121=CURVE_STYLE('',#239,POSITIVE_LENGTH_MEASURE(1.0),#240);
#122=VERTEX_POINT('',#241);
#123=VERTEX_POINT('',#242);
#124=(B_SPLINE_CURVE(3,(#244,#245,#246,#247),.UNSPECIFIED.,.F.,.F.)B_SPLINE_CURVE_WITH_KNOTS((4,4),(0.0,1.0),.UNSPECIFIED.)RATIONAL_B_SPLINE_CURVE((1.0,0.333333333333333,0.333333333333333,1.0))BOUNDED_CURVE()REPRESENTATION_ITEM('')GEOMETRIC_REPRESENTATION_ITEM()CURVE());
#125=CURVE_STYLE('',#254,POSITIVE_LENGTH_MEASURE(1.0),#255);
#126=B_SPLINE_CURVE_WITH_KNOTS('',2,(#256,#257,#258,#259,#260,#261,#262,#263,#264,#265,#266,#267,#268,#269,#270,#271,#272),.UNSPECIFIED.,.F.,.F.,(3,2,2,2,2,2,2,2,3),(0.0,0.125,0.25,0.375,0.5,0.625,0.75,0.875,1.0),.UNSPECIFIED.);
#127=CURVE_STYLE('',#273,POSITIVE_LENGTH_MEASURE(1.0),#274);
#128=VERTEX_POINT('',#275);
#129=VERTEX_POINT('',#276);
#130=(B_SPLINE_CURVE(3,(#278,#279,#280,#281),.UNSPECIFIED.,.F.,.F.)B_SPLINE_CURVE_WITH_KNOTS((4,4),(0.0,1.0),.UNSPECIFIED.)RATIONAL_B_SPLINE_CURVE((1.0,0.333333333333333,0.333333333333333,1.0))BOUNDED_CURVE()REPRESENTATION_ITEM('')GEOMETRIC_REPRESENTATION_ITEM()CURVE());
#131=CURVE_STYLE('',#288,POSITIVE_LENGTH_MEASURE(1.0),#289);
#132=(B_SPLINE_CURVE(3,(#291,#292,#293,#294),.UNSPECIFIED.,.F.,.F.)B_SPLINE_CURVE_WITH_KNOTS((4,4),(0.0,1.0),.UNSPECIFIED.)RATIONAL_B_SPLINE_CURVE((1.0,0.333333333333333,0.333333333333333,1.0))BOUNDED_CURVE()REPRESENTATION_ITEM('')GEOMETRIC_REPRESENTATION_ITEM()CURVE());
#133=CURVE_STYLE('',#301,POSITIVE_LENGTH_MEASURE(1.0),#302);
#134=CLOSED_SHELL('',(#39,#42,#45,#48,#51));
#135=PRODUCT_CONTEXT('',#24,'mechanical');
#136=PRODUCT_DEFINITION_FORMATION_WITH_SPECIFIED_SOURCE(' ','NONE',#70,.NOT_KNOWN.);
#137=CARTESIAN_POINT('',(0.0,0.0,0.0));
#138=DIRECTION('',(0.0,0.0,1.0));
#139=DIRECTION('',(1.0,0.0,0.0));
#140= (NAMED_UNIT(#78)LENGTH_UNIT()SI_UNIT($,.METRE.));
#141=SURFACE_SIDE_STYLE('',(#304));
#142=DRAUGHTING_PRE_DEFINED_CURVE_FONT('continuous');
#143=COLOUR_RGB('',0.752941191196442,0.752941191196442,0.752941191196442);
#144=EDGE_LOOP('',(#305,#306));
#145=EDGE_LOOP('',(#307,#308));
#146=B_SPLINE_CURVE_WITH_KNOTS('',1,(#309,#310),.UNSPECIFIED.,.F.,.F.,(2,2),(0.0,1.0),.UNSPECIFIED.);
#147=AXIS1_PLACEMENT('',#311,#312);
#148=SURFACE_SIDE_STYLE('',(#313));
#149=DRAUGHTING_PRE_DEFINED_CURVE_FONT('continuous');
#150=COLOUR_RGB('',0.752941191196442,0.752941191196442,0.752941191196442);
#151=EDGE_LOOP('',(#314,#315));
#152=AXIS2_PLACEMENT_3D('',#316,#317,#318);
#153=SURFACE_SIDE_STYLE('',(#319));
#154=DRAUGHTING_PRE_DEFINED_CURVE_FONT('continuous');
#155=COLOUR_RGB('',0.752941191196442,0.752941191196442,0.752941191196442);
#156=EDGE_LOOP('',(#320,#321));
#157=EDGE_LOOP('',(#322,#323));
#158=AXIS2_PLACEMENT_3D('',#324,#325,#326);
#159=SURFACE_SIDE_STYLE('',(#327));
#160=DRAUGHTING_PRE_DEFINED_CURVE_FONT('continuous');
#161=COLOUR_RGB('',0.752941191196442,0.752941191196442,0.752941191196442);
#162=EDGE_LOOP('',(#328,#329));
#163=AXIS2_PLACEMENT_3D('',#330,#331,#332);
#164=SURFACE_SIDE_STYLE('',(#333));
#165=DRAUGHTING_PRE_DEFINED_CURVE_FONT('continuous');
#166=COLOUR_RGB('',0.752941191196442,0.752941191196442,0.752941191196442);
#167=EDGE_LOOP('',(#334,#335));
#168=EDGE_LOOP('',(#336,#337));
#169=B_SPLINE_CURVE_WITH_KNOTS('',1,(#338,#339),.UNSPECIFIED.,.F.,.F.,(2,2),(0.0,1.0),.UNSPECIFIED.);
#170=AXIS1_PLACEMENT('',#340,#341);
#171=DRAUGHTING_PRE_DEFINED_CURVE_FONT('continuous');
#172=COLOUR_RGB('',1.0,1.0,1.0);
#173=CARTESIAN_POINT('',(0.003,0.00175,0.0));
#174=CARTESIAN_POINT('',(0.003,-0.00175,-1.42875459900525E-019));
#175=CARTESIAN_POINT('',(0.003,0.00175,0.0));
#176=CARTESIAN_POINT('',(0.003,0.00175,-0.00034781054514182));
#177=CARTESIAN_POINT('',(0.003,0.00161678918189475,-0.000669696006638907));
#178=CARTESIAN_POINT('',(0.003,0.00148388976720143,-0.000990829004992341));
#179=CARTESIAN_POINT('',(0.003,0.00123743686707646,-0.00123743686707646));
#180=CARTESIAN_POINT('',(0.003,0.00099176153990307,-0.00148326666729518));
#181=CARTESIAN_POINT('',(0.003,0.000669696006638907,-0.00161678918189475));
#182=CARTESIAN_POINT('',(0.003,0.000348646608494473,-0.0017498904253481));
#183=CARTESIAN_POINT('',(0.003,0.0,-0.00175));
#184=CARTESIAN_POINT('',(0.003,-0.000347546608567685,-0.00175010922893763));
#185=CARTESIAN_POINT('',(0.003,-0.000669696006638907,-0.00161678918189475));
#186=CARTESIAN_POINT('',(0.003,-0.000990829004992259,-0.00148388976720138));
#187=CARTESIAN_POINT('',(0.003,-0.00123743686707646,-0.00123743686707646));
#188=CARTESIAN_POINT('',(0.003,-0.00148326666729521,-0.000991761539903172));
#189=CARTESIAN_POINT('',(0.003,-0.00161678918189475,-0.000669696006638907));
#190=CARTESIAN_POINT('',(0.003,-0.00175,-0.000348382306860942));
#191=CARTESIAN_POINT('',(0.003,-0.00175,0.0));
#192=DRAUGHTING_PRE_DEFINED_CURVE_FONT('continuous');
#193=COLOUR_RGB('',1.0,1.0,1.0);
#194=CARTESIAN_POINT('',(0.003,-0.00175,0.0));
#195=CARTESIAN_POINT('',(0.003,-0.00175,0.000347810545141991));
#196=CARTESIAN_POINT('',(0.003,-0.00161678918189475,0.000669696006638907));
#197=CARTESIAN_POINT('',(0.003,-0.00148388976720112,0.00099082900499293));
#198=CARTESIAN_POINT('',(0.003,-0.00123743686707646,0.00123743686707646));
#199=CARTESIAN_POINT('',(0.003,-0.000991761539902665,0.00148326666729531));
#200=CARTESIAN_POINT('',(0.003,-0.000669696006638908,0.00161678918189475));
#201=CARTESIAN_POINT('',(0.003,-0.000348646608494727,0.00174989042534803));
#202=CARTESIAN_POINT('',(0.003,-4.33680868994202E-019,0.00175));
#203=CARTESIAN_POINT('',(0.003,0.00034754660856731,0.0017501092289377));
#204=CARTESIAN_POINT('',(0.003,0.000669696006638908,0.00161678918189475));
#205=CARTESIAN_POINT('',(0.003,0.000990829004992812,0.00148388976720123));
#206=CARTESIAN_POINT('',(0.003,0.00123743686707646,0.00123743686707646));
#207=CARTESIAN_POINT('',(0.003,0.00148326666729531,0.000991761539902663));
#208=CARTESIAN_POINT('',(0.003,0.00161678918189475,0.000669696006638908));
#209=CARTESIAN_POINT('',(0.003,0.00175,0.000348382306861217));
#210=CARTESIAN_POINT('',(0.003,0.00175,0.0));
#211=DRAUGHTING_PRE_DEFINED_CURVE_FONT('continuous');
#212=COLOUR_RGB('',1.0,1.0,1.0);
#213=CARTESIAN_POINT('',(0.25,-0.00175,-7.05953150681576E-020));
#214=CARTESIAN_POINT('',(0.25,0.00175,0.0));
#216=CARTESIAN_POINT('',(0.25,-0.00175,-2.14313189850787E-019));
#217=CARTESIAN_POINT('',(0.25,-0.00175,0.0035));
#218=CARTESIAN_POINT('',(0.25,0.00175,0.0035));
#219=CARTESIAN_POINT('',(0.25,0.00175,0.0));
#226=DRAUGHTING_PRE_DEFINED_CURVE_FONT('continuous');
#227=COLOUR_RGB('',1.0,1.0,1.0);
#229=CARTESIAN_POINT('',(0.25,0.00175,0.0));
#230=CARTESIAN_POINT('',(0.25,0.00175,-0.0035));
#231=CARTESIAN_POINT('',(0.25,-0.00175,-0.0035));
#232=CARTESIAN_POINT('',(0.25,-0.00175,-2.14313189850787E-019));
#239=DRAUGHTING_PRE_DEFINED_CURVE_FONT('continuous');
#240=COLOUR_RGB('',1.0,1.0,1.0);
#241=CARTESIAN_POINT('',(0.0,-0.0035,-4.30311209465783E-019));
#242=CARTESIAN_POINT('',(0.0,0.0035,0.0));
#244=CARTESIAN_POINT('',(0.0,-0.0035,-4.28626379701574E-019));
#245=CARTESIAN_POINT('',(0.0,-0.0035,-0.007));
#246=CARTESIAN_POINT('',(0.0,0.0035,-0.007));
#247=CARTESIAN_POINT('',(0.0,0.0035,0.0));
#254=DRAUGHTING_PRE_DEFINED_CURVE_FONT('continuous');
#255=COLOUR_RGB('',1.0,1.0,1.0);
#256=CARTESIAN_POINT('',(0.0,-0.0035,-4.33680868994202E-019));
#257=CARTESIAN_POINT('',(0.0,-0.0035,0.000695907296642216));
#258=CARTESIAN_POINT('',(0.0,-0.0032335783637895,0.00133939201327781));
#259=CARTESIAN_POINT('',(0.0,-0.00296746820427775,0.00198212442428959));
#260=CARTESIAN_POINT('',(0.0,-0.00247487373415292,0.00247487373415292));
#261=CARTESIAN_POINT('',(0.0,-0.0019830569592476,0.00296684510433981));
#262=CARTESIAN_POINT('',(0.0,-0.00133939201327782,0.0032335783637895));
#263=CARTESIAN_POINT('',(0.0,-0.000696743268627811,0.00349989051177122));
#264=CARTESIAN_POINT('',(0.0,-4.33680868994202E-019,0.0035));
#265=CARTESIAN_POINT('',(0.0,0.000695643268646625,0.00350010931537164));
#266=CARTESIAN_POINT('',(0.0,0.00133939201327782,0.0032335783637895));
#267=CARTESIAN_POINT('',(0.0,0.00198212442429099,0.00296746820427662));
#268=CARTESIAN_POINT('',(0.0,0.00247487373415292,0.00247487373415292));
#269=CARTESIAN_POINT('',(0.0,0.00296684510434,0.00198305695924713));
#270=CARTESIAN_POINT('',(0.0,0.0032335783637895,0.00133939201327782));
#271=CARTESIAN_POINT('',(0.0,0.0035,0.000696479058101502));
#272=CARTESIAN_POINT('',(0.0,0.0035,0.0));
#273=DRAUGHTING_PRE_DEFINED_CURVE_FONT('continuous');
#274=COLOUR_RGB('',1.0,1.0,1.0);
#275=CARTESIAN_POINT('',(0.003,0.0035,0.0));
#276=CARTESIAN_POINT('',(0.003,-0.0035,-1.41190630136315E-019));
#278=CARTESIAN_POINT('',(0.003,0.0035,0.0));
#279=CARTESIAN_POINT('',(0.003,0.0035,-0.007));
#280=CARTESIAN_POINT('',(0.003,-0.0035,-0.007));
#281=CARTESIAN_POINT('',(0.003,-0.0035,-4.28626379701574E-019));
#288=DRAUGHTING_PRE_DEFINED_CURVE_FONT('continuous');
#289=COLOUR_RGB('',1.0,1.0,1.0);
#291=CARTESIAN_POINT('',(0.003,-0.0035,-4.28626379701574E-019));
#292=CARTESIAN_POINT('',(0.003,-0.0035,0.007));
#293=CARTESIAN_POINT('',(0.003,0.0035,0.007));
#294=CARTESIAN_POINT('',(0.003,0.0035,0.0));
#301=DRAUGHTING_PRE_DEFINED_CURVE_FONT('continuous');
#302=COLOUR_RGB('',1.0,1.0,1.0);
#304=SURFACE_STYLE_FILL_AREA(#342);
#305=ORIENTED_EDGE('',*,*,#53,.F.);
#306=ORIENTED_EDGE('',*,*,#55,.F.);
#307=ORIENTED_EDGE('',*,*,#57,.T.);
#308=ORIENTED_EDGE('',*,*,#59,.T.);
#309=CARTESIAN_POINT('',(0.003,0.00175,0.0));
#310=CARTESIAN_POINT('',(0.25,0.00175,0.0));
#311=CARTESIAN_POINT('',(0.1265,0.0,0.0));
#312=DIRECTION('',(1.0,-0.0,-0.0));
#313=SURFACE_STYLE_FILL_AREA(#343);
#314=ORIENTED_EDGE('',*,*,#61,.F.);
#315=ORIENTED_EDGE('',*,*,#63,.T.);
#316=CARTESIAN_POINT('',(0.0,-0.0035,0.0035));
#317=DIRECTION('',(-1.0,0.0,0.0));
#318=DIRECTION('',(0.0,1.0,0.0));
#319=SURFACE_STYLE_FILL_AREA(#344);
#320=ORIENTED_EDGE('',*,*,#53,.T.);
#321=ORIENTED_EDGE('',*,*,#55,.T.);
#322=ORIENTED_EDGE('',*,*,#65,.F.);
#323=ORIENTED_EDGE('',*,*,#67,.F.);
#324=CARTESIAN_POINT('',(0.003,0.0035,0.0035));
#325=DIRECTION('',(1.0,0.0,0.0));
#326=DIRECTION('',(0.0,-1.0,0.0));
#327=SURFACE_STYLE_FILL_AREA(#345);
#328=ORIENTED_EDGE('',*,*,#59,.F.);
#329=ORIENTED_EDGE('',*,*,#57,.F.);
#330=CARTESIAN_POINT('',(0.25,0.00175,0.00175));
#331=DIRECTION('',(1.0,0.0,0.0));
#332=DIRECTION('',(0.0,-1.0,0.0));
#333=SURFACE_STYLE_FILL_AREA(#346);
#334=ORIENTED_EDGE('',*,*,#67,.T.);
#335=ORIENTED_EDGE('',*,*,#65,.T.);
#336=ORIENTED_EDGE('',*,*,#61,.T.);
#337=ORIENTED_EDGE('',*,*,#63,.F.);
#338=CARTESIAN_POINT('',(0.0,0.0035,0.0));
#339=CARTESIAN_POINT('',(0.003,0.0035,0.0));
#340=CARTESIAN_POINT('',(0.0015,0.0,0.0));
#341=DIRECTION('',(1.0,-0.0,-0.0));
#342=FILL_AREA_STYLE('',(#347));
#343=FILL_AREA_STYLE('',(#348));
#344=FILL_AREA_STYLE('',(#349));
#345=FILL_AREA_STYLE('',(#350));
#346=FILL_AREA_STYLE('',(#351));
#347=FILL_AREA_STYLE_COLOUR('',#352);
#348=FILL_AREA_STYLE_COLOUR('',#353);
#349=FILL_AREA_STYLE_COLOUR('',#354);
#350=FILL_AREA_STYLE_COLOUR('',#355);
#351=FILL_AREA_STYLE_COLOUR('',#356);
#352=COLOUR_RGB('',0.752941191196442,0.752941191196442,0.752941191196442);
#353=COLOUR_RGB('',0.752941191196442,0.752941191196442,0.752941191196442);
#354=COLOUR_RGB('',0.752941191196442,0.752941191196442,0.752941191196442);
#355=COLOUR_RGB('',0.752941191196442,0.752941191196442,0.752941191196442);
#356=COLOUR_RGB('',0.752941191196442,0.752941191196442,0.752941191196442);
#357=PRESENTATION_LAYER_ASSIGNMENT('LAYER0','',(#69));
ENDSEC;
END-ISO-10303-21;
