ISO-10303-21;
HEADER;
/* Generated by software containing ST-Developer
 * from STEP Tools, Inc. (www.steptools.com) 
 */
/* OPTION: using custom renumber hook */

FILE_DESCRIPTION(
/* description */ ('STEP AP214'),
/* implementation_level */ '2;1');

FILE_NAME(
/* name */ 'ANE8',
/* time_stamp */ '2023-09-15T10:43:46+02:00',
/* author */ ('License CC BY-ND 4.0'),
/* organization */ ('CADENAS'),
/* preprocessor_version */ 'ST-DEVELOPER v19.3',
/* originating_system */ 'PARTsolutions',
/* authorisation */ '  ');

FILE_SCHEMA (('AUTOMOTIVE_DESIGN {1 0 10303 214 3 1 1}'));
ENDSEC;

DATA;
#10=PROPERTY_DEFINITION_REPRESENTATION(#14,#12);
#11=PROPERTY_DEFINITION_REPRESENTATION(#15,#13);
#12=REPRESENTATION('',(#16),#395);
#13=REPRESENTATION('',(#17),#395);
#14=PROPERTY_DEFINITION('pmi validation property','',#400);
#15=PROPERTY_DEFINITION('pmi validation property','',#400);
#16=VALUE_REPRESENTATION_ITEM('number of annotations',COUNT_MEASURE(0.));
#17=VALUE_REPRESENTATION_ITEM('number of views',COUNT_MEASURE(0.));
#18=SHAPE_REPRESENTATION_RELATIONSHIP('','',#245,#19);
#19=ADVANCED_BREP_SHAPE_REPRESENTATION('',(#243),#395);
#20=CYLINDRICAL_SURFACE('',#266,2.95);
#21=VERTEX_LOOP('',#154);
#22=CONICAL_SURFACE('',#249,4.37524501745263,0.785398163397448);
#23=CONICAL_SURFACE('',#251,4.94037707622759,0.0312413936106985);
#24=CONICAL_SURFACE('',#253,4.72685414434393,0.785398163397448);
#25=CONICAL_SURFACE('',#262,0.,1.13446401379631);
#26=LINE('',#337,#44);
#27=LINE('',#340,#45);
#28=LINE('',#342,#46);
#29=LINE('',#344,#47);
#30=LINE('',#346,#48);
#31=LINE('',#348,#49);
#32=LINE('',#360,#50);
#33=LINE('',#362,#51);
#34=LINE('',#364,#52);
#35=LINE('',#366,#53);
#36=LINE('',#368,#54);
#37=LINE('',#370,#55);
#38=LINE('',#372,#56);
#39=LINE('',#374,#57);
#40=LINE('',#376,#58);
#41=LINE('',#378,#59);
#42=LINE('',#380,#60);
#43=LINE('',#382,#61);
#44=VECTOR('',#275,1000.);
#45=VECTOR('',#276,1000.);
#46=VECTOR('',#277,1000.);
#47=VECTOR('',#278,1000.);
#48=VECTOR('',#279,1000.);
#49=VECTOR('',#280,1000.);
#50=VECTOR('',#297,1000.);
#51=VECTOR('',#298,1000.);
#52=VECTOR('',#299,1000.);
#53=VECTOR('',#302,1000.);
#54=VECTOR('',#303,1000.);
#55=VECTOR('',#306,1000.);
#56=VECTOR('',#307,1000.);
#57=VECTOR('',#310,1000.);
#58=VECTOR('',#311,1000.);
#59=VECTOR('',#314,1000.);
#60=VECTOR('',#315,1000.);
#61=VECTOR('',#318,1000.);
#62=ORIENTED_EDGE('',*,*,#112,.F.);
#63=ORIENTED_EDGE('',*,*,#113,.F.);
#64=ORIENTED_EDGE('',*,*,#114,.F.);
#65=ORIENTED_EDGE('',*,*,#115,.F.);
#66=ORIENTED_EDGE('',*,*,#116,.F.);
#67=ORIENTED_EDGE('',*,*,#117,.F.);
#68=ORIENTED_EDGE('',*,*,#118,.T.);
#69=ORIENTED_EDGE('',*,*,#119,.F.);
#70=ORIENTED_EDGE('',*,*,#112,.T.);
#71=ORIENTED_EDGE('',*,*,#120,.F.);
#72=ORIENTED_EDGE('',*,*,#119,.T.);
#73=ORIENTED_EDGE('',*,*,#121,.F.);
#74=ORIENTED_EDGE('',*,*,#120,.T.);
#75=ORIENTED_EDGE('',*,*,#121,.T.);
#76=ORIENTED_EDGE('',*,*,#115,.T.);
#77=ORIENTED_EDGE('',*,*,#122,.F.);
#78=ORIENTED_EDGE('',*,*,#123,.F.);
#79=ORIENTED_EDGE('',*,*,#124,.T.);
#80=ORIENTED_EDGE('',*,*,#114,.T.);
#81=ORIENTED_EDGE('',*,*,#125,.F.);
#82=ORIENTED_EDGE('',*,*,#126,.F.);
#83=ORIENTED_EDGE('',*,*,#122,.T.);
#84=ORIENTED_EDGE('',*,*,#113,.T.);
#85=ORIENTED_EDGE('',*,*,#127,.F.);
#86=ORIENTED_EDGE('',*,*,#128,.F.);
#87=ORIENTED_EDGE('',*,*,#125,.T.);
#88=ORIENTED_EDGE('',*,*,#127,.T.);
#89=ORIENTED_EDGE('',*,*,#118,.F.);
#90=ORIENTED_EDGE('',*,*,#129,.F.);
#91=ORIENTED_EDGE('',*,*,#130,.F.);
#92=ORIENTED_EDGE('',*,*,#117,.T.);
#93=ORIENTED_EDGE('',*,*,#131,.F.);
#94=ORIENTED_EDGE('',*,*,#132,.F.);
#95=ORIENTED_EDGE('',*,*,#129,.T.);
#96=ORIENTED_EDGE('',*,*,#116,.T.);
#97=ORIENTED_EDGE('',*,*,#124,.F.);
#98=ORIENTED_EDGE('',*,*,#133,.F.);
#99=ORIENTED_EDGE('',*,*,#131,.T.);
#100=ORIENTED_EDGE('',*,*,#134,.F.);
#101=ORIENTED_EDGE('',*,*,#135,.F.);
#102=ORIENTED_EDGE('',*,*,#134,.T.);
#103=ORIENTED_EDGE('',*,*,#136,.F.);
#104=ORIENTED_EDGE('',*,*,#135,.T.);
#105=ORIENTED_EDGE('',*,*,#130,.T.);
#106=ORIENTED_EDGE('',*,*,#132,.T.);
#107=ORIENTED_EDGE('',*,*,#133,.T.);
#108=ORIENTED_EDGE('',*,*,#123,.T.);
#109=ORIENTED_EDGE('',*,*,#126,.T.);
#110=ORIENTED_EDGE('',*,*,#128,.T.);
#111=ORIENTED_EDGE('',*,*,#136,.T.);
#112=EDGE_CURVE('',#137,#137,#157,.T.);
#113=EDGE_CURVE('',#138,#139,#26,.T.);
#114=EDGE_CURVE('',#140,#138,#27,.T.);
#115=EDGE_CURVE('',#141,#140,#28,.T.);
#116=EDGE_CURVE('',#142,#141,#29,.T.);
#117=EDGE_CURVE('',#143,#142,#30,.T.);
#118=EDGE_CURVE('',#143,#139,#31,.T.);
#119=EDGE_CURVE('',#144,#144,#158,.T.);
#120=EDGE_CURVE('',#145,#145,#159,.T.);
#121=EDGE_CURVE('',#146,#146,#160,.T.);
#122=EDGE_CURVE('',#147,#140,#32,.T.);
#123=EDGE_CURVE('',#148,#147,#33,.T.);
#124=EDGE_CURVE('',#148,#141,#34,.T.);
#125=EDGE_CURVE('',#149,#138,#35,.T.);
#126=EDGE_CURVE('',#147,#149,#36,.T.);
#127=EDGE_CURVE('',#150,#139,#37,.T.);
#128=EDGE_CURVE('',#149,#150,#38,.T.);
#129=EDGE_CURVE('',#151,#143,#39,.T.);
#130=EDGE_CURVE('',#150,#151,#40,.T.);
#131=EDGE_CURVE('',#152,#142,#41,.T.);
#132=EDGE_CURVE('',#151,#152,#42,.T.);
#133=EDGE_CURVE('',#152,#148,#43,.T.);
#134=EDGE_CURVE('',#153,#153,#161,.T.);
#135=EDGE_CURVE('',#155,#155,#162,.T.);
#136=EDGE_CURVE('',#156,#156,#163,.T.);
#137=VERTEX_POINT('',#336);
#138=VERTEX_POINT('',#338);
#139=VERTEX_POINT('',#339);
#140=VERTEX_POINT('',#341);
#141=VERTEX_POINT('',#343);
#142=VERTEX_POINT('',#345);
#143=VERTEX_POINT('',#347);
#144=VERTEX_POINT('',#351);
#145=VERTEX_POINT('',#354);
#146=VERTEX_POINT('',#357);
#147=VERTEX_POINT('',#361);
#148=VERTEX_POINT('',#363);
#149=VERTEX_POINT('',#367);
#150=VERTEX_POINT('',#371);
#151=VERTEX_POINT('',#375);
#152=VERTEX_POINT('',#379);
#153=VERTEX_POINT('',#385);
#154=VERTEX_POINT('',#386);
#155=VERTEX_POINT('',#389);
#156=VERTEX_POINT('',#392);
#157=CIRCLE('',#248,4.37524501745263);
#158=CIRCLE('',#250,4.94037707622759);
#159=CIRCLE('',#252,4.72685414434393);
#160=CIRCLE('',#254,4.12437857778575);
#161=CIRCLE('',#263,1.42967128033971);
#162=CIRCLE('',#265,2.95);
#163=CIRCLE('',#267,2.95);
#164=EDGE_LOOP('',(#62));
#165=EDGE_LOOP('',(#63,#64,#65,#66,#67,#68));
#166=EDGE_LOOP('',(#69));
#167=EDGE_LOOP('',(#70));
#168=EDGE_LOOP('',(#71));
#169=EDGE_LOOP('',(#72));
#170=EDGE_LOOP('',(#73));
#171=EDGE_LOOP('',(#74));
#172=EDGE_LOOP('',(#75));
#173=EDGE_LOOP('',(#76,#77,#78,#79));
#174=EDGE_LOOP('',(#80,#81,#82,#83));
#175=EDGE_LOOP('',(#84,#85,#86,#87));
#176=EDGE_LOOP('',(#88,#89,#90,#91));
#177=EDGE_LOOP('',(#92,#93,#94,#95));
#178=EDGE_LOOP('',(#96,#97,#98,#99));
#179=EDGE_LOOP('',(#100));
#180=EDGE_LOOP('',(#101));
#181=EDGE_LOOP('',(#102));
#182=EDGE_LOOP('',(#103));
#183=EDGE_LOOP('',(#104));
#184=EDGE_LOOP('',(#105,#106,#107,#108,#109,#110));
#185=EDGE_LOOP('',(#111));
#186=FACE_BOUND('',#164,.T.);
#187=FACE_BOUND('',#165,.T.);
#188=FACE_BOUND('',#166,.T.);
#189=FACE_BOUND('',#167,.T.);
#190=FACE_BOUND('',#168,.T.);
#191=FACE_BOUND('',#169,.T.);
#192=FACE_BOUND('',#170,.T.);
#193=FACE_BOUND('',#171,.T.);
#194=FACE_BOUND('',#172,.T.);
#195=FACE_BOUND('',#173,.T.);
#196=FACE_BOUND('',#174,.T.);
#197=FACE_BOUND('',#175,.T.);
#198=FACE_BOUND('',#176,.T.);
#199=FACE_BOUND('',#177,.T.);
#200=FACE_BOUND('',#178,.T.);
#201=FACE_BOUND('',#179,.T.);
#202=FACE_BOUND('',#21,.T.);
#203=FACE_BOUND('',#180,.T.);
#204=FACE_BOUND('',#181,.T.);
#205=FACE_BOUND('',#182,.T.);
#206=FACE_BOUND('',#183,.T.);
#207=FACE_BOUND('',#184,.T.);
#208=FACE_BOUND('',#185,.T.);
#209=PLANE('',#247);
#210=PLANE('',#255);
#211=PLANE('',#256);
#212=PLANE('',#257);
#213=PLANE('',#258);
#214=PLANE('',#259);
#215=PLANE('',#260);
#216=PLANE('',#261);
#217=PLANE('',#264);
#218=PLANE('',#268);
#219=ADVANCED_FACE('',(#186,#187),#209,.F.);
#220=ADVANCED_FACE('',(#188,#189),#22,.T.);
#221=ADVANCED_FACE('',(#190,#191),#23,.T.);
#222=ADVANCED_FACE('',(#192,#193),#24,.T.);
#223=ADVANCED_FACE('',(#194),#210,.F.);
#224=ADVANCED_FACE('',(#195),#211,.F.);
#225=ADVANCED_FACE('',(#196),#212,.F.);
#226=ADVANCED_FACE('',(#197),#213,.F.);
#227=ADVANCED_FACE('',(#198),#214,.F.);
#228=ADVANCED_FACE('',(#199),#215,.F.);
#229=ADVANCED_FACE('',(#200),#216,.F.);
#230=ADVANCED_FACE('',(#201,#202),#25,.F.);
#231=ADVANCED_FACE('',(#203,#204),#217,.F.);
#232=ADVANCED_FACE('',(#205,#206),#20,.F.);
#233=ADVANCED_FACE('',(#207,#208),#218,.F.);
#234=CLOSED_SHELL('',(#219,#220,#221,#222,#223,#224,#225,#226,#227,#228,
#229,#230,#231,#232,#233));
#235=STYLED_ITEM('',(#236),#243);
#236=PRESENTATION_STYLE_ASSIGNMENT((#237));
#237=SURFACE_STYLE_USAGE(.BOTH.,#238);
#238=SURFACE_SIDE_STYLE('',(#239));
#239=SURFACE_STYLE_FILL_AREA(#240);
#240=FILL_AREA_STYLE('',(#241));
#241=FILL_AREA_STYLE_COLOUR('',#242);
#242=COLOUR_RGB('',0.689999997615814,0.689999997615814,0.689999997615814);
#243=MANIFOLD_SOLID_BREP('ANE8',#234);
#244=SHAPE_DEFINITION_REPRESENTATION(#400,#245);
#245=SHAPE_REPRESENTATION('ANE8',(#246),#395);
#246=AXIS2_PLACEMENT_3D('',#333,#269,#270);
#247=AXIS2_PLACEMENT_3D('',#334,#271,#272);
#248=AXIS2_PLACEMENT_3D('',#335,#273,#274);
#249=AXIS2_PLACEMENT_3D('',#349,#281,#282);
#250=AXIS2_PLACEMENT_3D('',#350,#283,#284);
#251=AXIS2_PLACEMENT_3D('',#352,#285,#286);
#252=AXIS2_PLACEMENT_3D('',#353,#287,#288);
#253=AXIS2_PLACEMENT_3D('',#355,#289,#290);
#254=AXIS2_PLACEMENT_3D('',#356,#291,#292);
#255=AXIS2_PLACEMENT_3D('',#358,#293,#294);
#256=AXIS2_PLACEMENT_3D('',#359,#295,#296);
#257=AXIS2_PLACEMENT_3D('',#365,#300,#301);
#258=AXIS2_PLACEMENT_3D('',#369,#304,#305);
#259=AXIS2_PLACEMENT_3D('',#373,#308,#309);
#260=AXIS2_PLACEMENT_3D('',#377,#312,#313);
#261=AXIS2_PLACEMENT_3D('',#381,#316,#317);
#262=AXIS2_PLACEMENT_3D('',#383,#319,#320);
#263=AXIS2_PLACEMENT_3D('',#384,#321,#322);
#264=AXIS2_PLACEMENT_3D('',#387,#323,#324);
#265=AXIS2_PLACEMENT_3D('',#388,#325,#326);
#266=AXIS2_PLACEMENT_3D('',#390,#327,#328);
#267=AXIS2_PLACEMENT_3D('',#391,#329,#330);
#268=AXIS2_PLACEMENT_3D('',#393,#331,#332);
#269=DIRECTION('',(0.,0.,1.));
#270=DIRECTION('',(1.,0.,0.));
#271=DIRECTION('',(1.,0.,0.));
#272=DIRECTION('',(0.,0.,-1.));
#273=DIRECTION('',(1.,0.,0.));
#274=DIRECTION('',(0.,0.,-1.));
#275=DIRECTION('',(0.,0.866025403784439,-0.5));
#276=DIRECTION('',(0.,0.866025403784439,0.5));
#277=DIRECTION('',(0.,0.,1.));
#278=DIRECTION('',(0.,-0.866025403784439,0.5));
#279=DIRECTION('',(0.,-0.866025403784439,-0.5));
#280=DIRECTION('',(0.,0.,1.));
#281=DIRECTION('',(1.,0.,0.));
#282=DIRECTION('',(0.,0.,-1.));
#283=DIRECTION('',(1.,0.,0.));
#284=DIRECTION('',(0.,0.,-1.));
#285=DIRECTION('',(-1.,0.,0.));
#286=DIRECTION('',(0.,0.,1.));
#287=DIRECTION('',(1.,0.,0.));
#288=DIRECTION('',(0.,0.,-1.));
#289=DIRECTION('',(-1.,0.,0.));
#290=DIRECTION('',(0.,0.,1.));
#291=DIRECTION('',(1.,0.,0.));
#292=DIRECTION('',(0.,0.,-1.));
#293=DIRECTION('',(-1.,0.,0.));
#294=DIRECTION('',(0.,0.,1.));
#295=DIRECTION('',(0.,-1.,0.));
#296=DIRECTION('',(0.,0.,-1.));
#297=DIRECTION('',(-1.,0.,0.));
#298=DIRECTION('',(0.,0.,1.));
#299=DIRECTION('',(-1.,0.,0.));
#300=DIRECTION('',(0.,-0.5,0.866025403784439));
#301=DIRECTION('',(0.,-0.866025403784439,-0.5));
#302=DIRECTION('',(-1.,0.,0.));
#303=DIRECTION('',(0.,0.866025403784439,0.5));
#304=DIRECTION('',(0.,0.5,0.866025403784439));
#305=DIRECTION('',(0.,-0.866025403784439,0.5));
#306=DIRECTION('',(-1.,0.,0.));
#307=DIRECTION('',(0.,0.866025403784439,-0.5));
#308=DIRECTION('',(0.,1.,0.));
#309=DIRECTION('',(0.,0.,1.));
#310=DIRECTION('',(-1.,0.,0.));
#311=DIRECTION('',(0.,0.,-1.));
#312=DIRECTION('',(0.,0.5,-0.866025403784439));
#313=DIRECTION('',(0.,0.866025403784439,0.5));
#314=DIRECTION('',(-1.,0.,0.));
#315=DIRECTION('',(0.,-0.866025403784439,-0.5));
#316=DIRECTION('',(0.,-0.5,-0.866025403784439));
#317=DIRECTION('',(0.,0.866025403784439,-0.5));
#318=DIRECTION('',(0.,-0.866025403784439,0.5));
#319=DIRECTION('',(-1.,0.,0.));
#320=DIRECTION('',(0.,0.,1.));
#321=DIRECTION('',(1.,0.,0.));
#322=DIRECTION('',(0.,0.,-1.));
#323=DIRECTION('',(1.,0.,0.));
#324=DIRECTION('',(0.,0.,-1.));
#325=DIRECTION('',(1.,0.,0.));
#326=DIRECTION('',(0.,0.,-1.));
#327=DIRECTION('',(1.,0.,0.));
#328=DIRECTION('',(0.,0.,-1.));
#329=DIRECTION('',(1.,0.,0.));
#330=DIRECTION('',(0.,0.,-1.));
#331=DIRECTION('',(-1.,0.,0.));
#332=DIRECTION('',(0.,0.,1.));
#333=CARTESIAN_POINT('',(0.,0.,0.));
#334=CARTESIAN_POINT('',(-8.,1.,0.));
#335=CARTESIAN_POINT('',(-8.,0.,0.));
#336=CARTESIAN_POINT('',(-8.,0.,-4.37524501745263));
#337=CARTESIAN_POINT('',(-8.,0.,2.88675134594813));
#338=CARTESIAN_POINT('',(-8.,0.,2.88675134594813));
#339=CARTESIAN_POINT('',(-8.,2.5,1.44337567297406));
#340=CARTESIAN_POINT('',(-8.,-2.5,1.44337567297406));
#341=CARTESIAN_POINT('',(-8.,-2.5,1.44337567297406));
#342=CARTESIAN_POINT('',(-8.,-2.5,-1.44337567297406));
#343=CARTESIAN_POINT('',(-8.,-2.5,-1.44337567297406));
#344=CARTESIAN_POINT('',(-8.,0.,-2.88675134594813));
#345=CARTESIAN_POINT('',(-8.,0.,-2.88675134594813));
#346=CARTESIAN_POINT('',(-8.,2.5,-1.44337567297406));
#347=CARTESIAN_POINT('',(-8.,2.5,-1.44337567297406));
#348=CARTESIAN_POINT('',(-8.,2.5,0.));
#349=CARTESIAN_POINT('',(-8.,0.,0.));
#350=CARTESIAN_POINT('',(-7.43486794122504,0.,0.));
#351=CARTESIAN_POINT('',(-7.43486794122504,0.,-4.94037707622759));
#352=CARTESIAN_POINT('',(-7.43486794122504,0.,0.));
#353=CARTESIAN_POINT('',(-0.602475566558187,0.,0.));
#354=CARTESIAN_POINT('',(-0.602475566558187,0.,-4.72685414434393));
#355=CARTESIAN_POINT('',(-0.602475566558187,0.,0.));
#356=CARTESIAN_POINT('',(0.,0.,0.));
#357=CARTESIAN_POINT('',(0.,0.,-4.12437857778575));
#358=CARTESIAN_POINT('',(0.,4.12437857778575,0.));
#359=CARTESIAN_POINT('',(-4.,-2.5,-1.44337567297406));
#360=CARTESIAN_POINT('',(-4.,-2.5,1.44337567297406));
#361=CARTESIAN_POINT('',(-4.,-2.5,1.44337567297406));
#362=CARTESIAN_POINT('',(-4.,-2.5,-1.44337567297406));
#363=CARTESIAN_POINT('',(-4.,-2.5,-1.44337567297406));
#364=CARTESIAN_POINT('',(-4.,-2.5,-1.44337567297406));
#365=CARTESIAN_POINT('',(-4.,-2.5,1.44337567297406));
#366=CARTESIAN_POINT('',(-4.,0.,2.88675134594813));
#367=CARTESIAN_POINT('',(-4.,0.,2.88675134594813));
#368=CARTESIAN_POINT('',(-4.,-2.5,1.44337567297406));
#369=CARTESIAN_POINT('',(-4.,0.,2.88675134594813));
#370=CARTESIAN_POINT('',(-4.,2.5,1.44337567297406));
#371=CARTESIAN_POINT('',(-4.,2.5,1.44337567297406));
#372=CARTESIAN_POINT('',(-4.,0.,2.88675134594813));
#373=CARTESIAN_POINT('',(-4.,2.5,1.44337567297406));
#374=CARTESIAN_POINT('',(-4.,2.5,-1.44337567297406));
#375=CARTESIAN_POINT('',(-4.,2.5,-1.44337567297406));
#376=CARTESIAN_POINT('',(-4.,2.5,1.44337567297406));
#377=CARTESIAN_POINT('',(-4.,2.5,-1.44337567297406));
#378=CARTESIAN_POINT('',(-4.,0.,-2.88675134594813));
#379=CARTESIAN_POINT('',(-4.,0.,-2.88675134594813));
#380=CARTESIAN_POINT('',(-4.,2.5,-1.44337567297406));
#381=CARTESIAN_POINT('',(-4.,0.,-2.88675134594813));
#382=CARTESIAN_POINT('',(-4.,0.,-2.88675134594813));
#383=CARTESIAN_POINT('',(-2.,0.,0.));
#384=CARTESIAN_POINT('',(-2.66666666666667,0.,0.));
#385=CARTESIAN_POINT('',(-2.66666666666667,0.,-1.42967128033971));
#386=CARTESIAN_POINT('',(-2.,0.,0.));
#387=CARTESIAN_POINT('',(-2.66666666666667,1.42967128033971,0.));
#388=CARTESIAN_POINT('',(-2.66666666666667,0.,0.));
#389=CARTESIAN_POINT('',(-2.66666666666667,0.,-2.95));
#390=CARTESIAN_POINT('',(0.,0.,0.));
#391=CARTESIAN_POINT('',(-4.,0.,0.));
#392=CARTESIAN_POINT('',(-4.,0.,-2.95));
#393=CARTESIAN_POINT('',(-4.,2.95,0.));
#394=MECHANICAL_DESIGN_GEOMETRIC_PRESENTATION_REPRESENTATION('',(#235),
#395);
#395=(
GEOMETRIC_REPRESENTATION_CONTEXT(3)
GLOBAL_UNCERTAINTY_ASSIGNED_CONTEXT((#396))
GLOBAL_UNIT_ASSIGNED_CONTEXT((#399,#398,#397))
REPRESENTATION_CONTEXT('ANE8','TOP_LEVEL_ASSEMBLY_PART')
);
#396=UNCERTAINTY_MEASURE_WITH_UNIT(LENGTH_MEASURE(0.005),#399,
'DISTANCE_ACCURACY_VALUE','Maximum Tolerance applied to model');
#397=(
NAMED_UNIT(*)
SI_UNIT($,.STERADIAN.)
SOLID_ANGLE_UNIT()
);
#398=(
NAMED_UNIT(*)
PLANE_ANGLE_UNIT()
SI_UNIT($,.RADIAN.)
);
#399=(
LENGTH_UNIT()
NAMED_UNIT(*)
SI_UNIT(.MILLI.,.METRE.)
);
#400=PRODUCT_DEFINITION_SHAPE('','',#401);
#401=PRODUCT_DEFINITION('','',#403,#402);
#402=PRODUCT_DEFINITION_CONTEXT('',#409,'design');
#403=PRODUCT_DEFINITION_FORMATION_WITH_SPECIFIED_SOURCE('','',#405,
 .NOT_KNOWN.);
#404=PRODUCT_RELATED_PRODUCT_CATEGORY('','',(#405));
#405=PRODUCT('ANE8','ANE8','ANE8',(#407));
#406=PRODUCT_CATEGORY('','');
#407=PRODUCT_CONTEXT('',#409,'mechanical');
#408=APPLICATION_PROTOCOL_DEFINITION('international standard',
'automotive_design',2010,#409);
#409=APPLICATION_CONTEXT(
'core data for automotive mechanical design processes');
ENDSEC;
END-ISO-10303-21;
