ISO-10303-21;
HEADER;
FILE_DESCRIPTION(('STEP AP214'),'1');
FILE_NAME('BK-16020_16X20.stp','2023-09-21T15:05:43',(' '),(' '),'Spatial InterOp 3D',' ',' ');
FILE_SCHEMA(('automotive_design'));
ENDSEC;
DATA;
#1=MECHANICAL_DESIGN_GEOMETRIC_PRESENTATION_REPRESENTATION(' ',(#10,#11,#12,#13,#14,#15,#16,#17),#6);
#2=PRODUCT_DEFINITION_CONTEXT('',#18,'design');
#3=APPLICATION_PROTOCOL_DEFINITION('INTERNATIONAL STANDARD','automotive_design',1994,#18);
#4=PRODUCT_CATEGORY_RELATIONSHIP('NONE','NONE',#19,#20);
#5=SHAPE_DEFINITION_REPRESENTATION(#21,#22);
#6= (GEOMETRIC_REPRESENTATION_CONTEXT(3)GLOBAL_UNCERTAINTY_ASSIGNED_CONTEXT((#25))GLOBAL_UNIT_ASSIGNED_CONTEXT((#27,#28,#29))REPRESENTATION_CONTEXT('NONE','WORKSPACE'));
#10=STYLED_ITEM('',(#31,#32),#33);
#11=STYLED_ITEM('',(#34,#35),#36);
#12=STYLED_ITEM('',(#37,#38),#39);
#13=STYLED_ITEM('',(#40,#41),#42);
#14=STYLED_ITEM('',(#43),#44);
#15=STYLED_ITEM('',(#45),#46);
#16=STYLED_ITEM('',(#47),#48);
#17=STYLED_ITEM('',(#49),#50);
#18=APPLICATION_CONTEXT(' ');
#19=PRODUCT_CATEGORY('part','NONE');
#20=PRODUCT_RELATED_PRODUCT_CATEGORY('detail',' ',(#51));
#21=PRODUCT_DEFINITION_SHAPE('NONE','NONE',#52);
#22=ADVANCED_BREP_SHAPE_REPRESENTATION('1',(#53,#54),#6);
#25=UNCERTAINTY_MEASURE_WITH_UNIT(LENGTH_MEASURE(1.0E-006),#27,'','');
#27= (CONVERSION_BASED_UNIT('METRE',#57)LENGTH_UNIT()NAMED_UNIT(#60));
#28= (NAMED_UNIT(#62)PLANE_ANGLE_UNIT()SI_UNIT($,.RADIAN.));
#29= (NAMED_UNIT(#62)SOLID_ANGLE_UNIT()SI_UNIT($,.STERADIAN.));
#31=PRESENTATION_STYLE_ASSIGNMENT((#68));
#32=PRESENTATION_STYLE_ASSIGNMENT((#69));
#33=ADVANCED_FACE('',(#70,#71),#72,.F.);
#34=PRESENTATION_STYLE_ASSIGNMENT((#73));
#35=PRESENTATION_STYLE_ASSIGNMENT((#74));
#36=ADVANCED_FACE('',(#75,#76),#77,.T.);
#37=PRESENTATION_STYLE_ASSIGNMENT((#78));
#38=PRESENTATION_STYLE_ASSIGNMENT((#79));
#39=ADVANCED_FACE('',(#80,#81),#82,.T.);
#40=PRESENTATION_STYLE_ASSIGNMENT((#83));
#41=PRESENTATION_STYLE_ASSIGNMENT((#84));
#42=ADVANCED_FACE('',(#85,#86),#87,.T.);
#43=PRESENTATION_STYLE_ASSIGNMENT((#88));
#44=EDGE_CURVE('',#89,#89,#90,.T.);
#45=PRESENTATION_STYLE_ASSIGNMENT((#91));
#46=EDGE_CURVE('',#92,#92,#93,.T.);
#47=PRESENTATION_STYLE_ASSIGNMENT((#94));
#48=EDGE_CURVE('',#95,#95,#96,.T.);
#49=PRESENTATION_STYLE_ASSIGNMENT((#97));
#50=EDGE_CURVE('',#98,#98,#99,.T.);
#51=PRODUCT('1','1','PART-1-DESC',(#100));
#52=PRODUCT_DEFINITION('NONE','NONE',#101,#2);
#53=MANIFOLD_SOLID_BREP('1',#102);
#54=AXIS2_PLACEMENT_3D('',#103,#104,#105);
#57=LENGTH_MEASURE_WITH_UNIT(LENGTH_MEASURE(1.0),#106);
#60=DIMENSIONAL_EXPONENTS(1.0,0.0,0.0,0.0,0.0,0.0,0.0);
#62=DIMENSIONAL_EXPONENTS(0.0,0.0,0.0,0.0,0.0,0.0,0.0);
#68=SURFACE_STYLE_USAGE(.BOTH.,#107);
#69=CURVE_STYLE('',#108,POSITIVE_LENGTH_MEASURE(0.0),#109);
#70=FACE_OUTER_BOUND('',#110,.T.);
#71=FACE_OUTER_BOUND('',#111,.T.);
#72=CYLINDRICAL_SURFACE('',#112,0.004);
#73=SURFACE_STYLE_USAGE(.BOTH.,#113);
#74=CURVE_STYLE('',#114,POSITIVE_LENGTH_MEASURE(0.0),#115);
#75=FACE_OUTER_BOUND('',#116,.T.);
#76=FACE_OUTER_BOUND('',#117,.T.);
#77=CYLINDRICAL_SURFACE('',#118,0.008);
#78=SURFACE_STYLE_USAGE(.BOTH.,#119);
#79=CURVE_STYLE('',#120,POSITIVE_LENGTH_MEASURE(0.0),#121);
#80=FACE_OUTER_BOUND('',#122,.T.);
#81=FACE_BOUND('',#123,.T.);
#82=PLANE('',#124);
#83=SURFACE_STYLE_USAGE(.BOTH.,#125);
#84=CURVE_STYLE('',#126,POSITIVE_LENGTH_MEASURE(0.0),#127);
#85=FACE_OUTER_BOUND('',#128,.T.);
#86=FACE_BOUND('',#129,.T.);
#87=PLANE('',#130);
#88=CURVE_STYLE('',#131,POSITIVE_LENGTH_MEASURE(0.0),#132);
#89=VERTEX_POINT('',#133);
#90=CIRCLE('',#134,0.004);
#91=CURVE_STYLE('',#135,POSITIVE_LENGTH_MEASURE(0.0),#136);
#92=VERTEX_POINT('',#137);
#93=CIRCLE('',#138,0.004);
#94=CURVE_STYLE('',#139,POSITIVE_LENGTH_MEASURE(0.0),#140);
#95=VERTEX_POINT('',#141);
#96=CIRCLE('',#142,0.008);
#97=CURVE_STYLE('',#143,POSITIVE_LENGTH_MEASURE(0.0),#144);
#98=VERTEX_POINT('',#145);
#99=CIRCLE('',#146,0.008);
#100=PRODUCT_CONTEXT('',#18,'mechanical');
#101=PRODUCT_DEFINITION_FORMATION_WITH_SPECIFIED_SOURCE(' ','NONE',#51,.NOT_KNOWN.);
#102=CLOSED_SHELL('',(#33,#36,#39,#42));
#103=CARTESIAN_POINT('',(0.0,0.0,0.0));
#104=DIRECTION('',(0.0,0.0,1.0));
#105=DIRECTION('',(1.0,0.0,0.0));
#106= (NAMED_UNIT(#60)LENGTH_UNIT()SI_UNIT($,.METRE.));
#107=SURFACE_SIDE_STYLE('',(#148));
#108=DRAUGHTING_PRE_DEFINED_CURVE_FONT('continuous');
#109=COLOUR_RGB('',0.286274522542953,0.286274522542953,0.286274522542953);
#110=EDGE_LOOP('',(#149));
#111=EDGE_LOOP('',(#150));
#112=AXIS2_PLACEMENT_3D('',#151,#152,#153);
#113=SURFACE_SIDE_STYLE('',(#154));
#114=DRAUGHTING_PRE_DEFINED_CURVE_FONT('continuous');
#115=COLOUR_RGB('',0.286274522542953,0.286274522542953,0.286274522542953);
#116=EDGE_LOOP('',(#155));
#117=EDGE_LOOP('',(#156));
#118=AXIS2_PLACEMENT_3D('',#157,#158,#159);
#119=SURFACE_SIDE_STYLE('',(#160));
#120=DRAUGHTING_PRE_DEFINED_CURVE_FONT('continuous');
#121=COLOUR_RGB('',0.286274522542953,0.286274522542953,0.286274522542953);
#122=EDGE_LOOP('',(#161));
#123=EDGE_LOOP('',(#162));
#124=AXIS2_PLACEMENT_3D('',#163,#164,#165);
#125=SURFACE_SIDE_STYLE('',(#166));
#126=DRAUGHTING_PRE_DEFINED_CURVE_FONT('continuous');
#127=COLOUR_RGB('',0.286274522542953,0.286274522542953,0.286274522542953);
#128=EDGE_LOOP('',(#167));
#129=EDGE_LOOP('',(#168));
#130=AXIS2_PLACEMENT_3D('',#169,#170,#171);
#131=DRAUGHTING_PRE_DEFINED_CURVE_FONT('continuous');
#132=COLOUR_RGB('',1.0,1.0,1.0);
#133=CARTESIAN_POINT('',(-0.004,-6.78610228823672E-019,0.02));
#134=AXIS2_PLACEMENT_3D('',#172,#173,#174);
#135=DRAUGHTING_PRE_DEFINED_CURVE_FONT('continuous');
#136=COLOUR_RGB('',1.0,1.0,1.0);
#137=CARTESIAN_POINT('',(0.004,6.78610228823672E-019,0.0));
#138=AXIS2_PLACEMENT_3D('',#175,#176,#177);
#139=DRAUGHTING_PRE_DEFINED_CURVE_FONT('continuous');
#140=COLOUR_RGB('',1.0,1.0,1.0);
#141=CARTESIAN_POINT('',(0.008,1.35722045764734E-018,0.0));
#142=AXIS2_PLACEMENT_3D('',#178,#179,#180);
#143=DRAUGHTING_PRE_DEFINED_CURVE_FONT('continuous');
#144=COLOUR_RGB('',1.0,1.0,1.0);
#145=CARTESIAN_POINT('',(0.008,1.35722045764734E-018,0.02));
#146=AXIS2_PLACEMENT_3D('',#181,#182,#183);
#148=SURFACE_STYLE_FILL_AREA(#184);
#149=ORIENTED_EDGE('',*,*,#44,.F.);
#150=ORIENTED_EDGE('',*,*,#46,.F.);
#151=CARTESIAN_POINT('',(0.0,0.0,0.0));
#152=DIRECTION('',(0.0,-0.0,1.0));
#153=DIRECTION('',(1.0,0.0,-0.0));
#154=SURFACE_STYLE_FILL_AREA(#185);
#155=ORIENTED_EDGE('',*,*,#48,.T.);
#156=ORIENTED_EDGE('',*,*,#50,.F.);
#157=CARTESIAN_POINT('',(0.0,0.0,0.02));
#158=DIRECTION('',(0.0,0.0,-1.0));
#159=DIRECTION('',(-1.0,0.0,0.0));
#160=SURFACE_STYLE_FILL_AREA(#186);
#161=ORIENTED_EDGE('',*,*,#50,.T.);
#162=ORIENTED_EDGE('',*,*,#44,.T.);
#163=CARTESIAN_POINT('',(-0.008001,-0.008001,0.02));
#164=DIRECTION('',(0.0,0.0,1.0));
#165=DIRECTION('',(1.0,0.0,0.0));
#166=SURFACE_STYLE_FILL_AREA(#187);
#167=ORIENTED_EDGE('',*,*,#48,.F.);
#168=ORIENTED_EDGE('',*,*,#46,.T.);
#169=CARTESIAN_POINT('',(0.008001,-0.008001,0.0));
#170=DIRECTION('',(0.0,0.0,-1.0));
#171=DIRECTION('',(-1.0,0.0,0.0));
#172=CARTESIAN_POINT('',(-1.22464679914736E-019,-6.78610228823672E-019,0.02));
#173=DIRECTION('',(-0.0,0.0,-1.0));
#174=DIRECTION('',(-1.0,0.0,0.0));
#175=CARTESIAN_POINT('',(-1.22464679914736E-019,6.78610228823672E-019,0.0));
#176=DIRECTION('',(0.0,-0.0,1.0));
#177=DIRECTION('',(1.0,0.0,-0.0));
#178=CARTESIAN_POINT('',(-2.4492935982947E-019,1.35722045764734E-018,0.0));
#179=DIRECTION('',(0.0,-0.0,1.0));
#180=DIRECTION('',(1.0,0.0,-0.0));
#181=CARTESIAN_POINT('',(-2.4492935982947E-019,1.35722045764734E-018,0.02));
#182=DIRECTION('',(0.0,-0.0,1.0));
#183=DIRECTION('',(1.0,0.0,-0.0));
#184=FILL_AREA_STYLE('',(#188));
#185=FILL_AREA_STYLE('',(#189));
#186=FILL_AREA_STYLE('',(#190));
#187=FILL_AREA_STYLE('',(#191));
#188=FILL_AREA_STYLE_COLOUR('',#192);
#189=FILL_AREA_STYLE_COLOUR('',#193);
#190=FILL_AREA_STYLE_COLOUR('',#194);
#191=FILL_AREA_STYLE_COLOUR('',#195);
#192=COLOUR_RGB('',0.286274522542953,0.286274522542953,0.286274522542953);
#193=COLOUR_RGB('',0.286274522542953,0.286274522542953,0.286274522542953);
#194=COLOUR_RGB('',0.286274522542953,0.286274522542953,0.286274522542953);
#195=COLOUR_RGB('',0.286274522542953,0.286274522542953,0.286274522542953);
#196=PRESENTATION_LAYER_ASSIGNMENT('LAYER0','',(#53));
ENDSEC;
END-ISO-10303-21;
