ISO-10303-21;
HEADER;
FILE_DESCRIPTION(('STEP AP214'),'1');
FILE_NAME('cctmp_E18E63FA-629A-419E-927B-AC697E9F83C1_2023_08_02_15_47_59_0552_66928..stp','2023-08-02T13:47:59',('Meusburger Georg GmbH & Co KG'),('CADClick - www.CADClick.com'),'Spatial InterOp 3D',' ','unknown authorization');
FILE_SCHEMA(('AUTOMOTIVE_DESIGN'));
ENDSEC;
DATA;
#1=MECHANICAL_DESIGN_GEOMETRIC_PRESENTATION_REPRESENTATION(' ',(#10,#11,#12,#13,#14,#15,#16,#17,#18,#19,#20,#21,#22,#23),#6);
#2=PRODUCT_DEFINITION_CONTEXT('',#24,'design');
#3=APPLICATION_PROTOCOL_DEFINITION('INTERNATIONAL STANDARD','automotive_design',1994,#24);
#4=PRODUCT_CATEGORY_RELATIONSHIP('NONE','NONE',#25,#26);
#5=SHAPE_DEFINITION_REPRESENTATION(#27,#28);
#6= (GEOMETRIC_REPRESENTATION_CONTEXT(3)GLOBAL_UNCERTAINTY_ASSIGNED_CONTEXT((#31))GLOBAL_UNIT_ASSIGNED_CONTEXT((#33,#34,#35))REPRESENTATION_CONTEXT('NONE','WORKSPACE'));
#10=STYLED_ITEM('',(#37),#38);
#11=STYLED_ITEM('',(#39),#40);
#12=STYLED_ITEM('',(#41),#42);
#13=STYLED_ITEM('',(#43),#44);
#14=STYLED_ITEM('',(#45),#46);
#15=STYLED_ITEM('',(#47),#48);
#16=STYLED_ITEM('',(#49),#50);
#17=STYLED_ITEM('',(#51),#52);
#18=STYLED_ITEM('',(#53),#54);
#19=STYLED_ITEM('',(#55),#56);
#20=STYLED_ITEM('',(#57),#58);
#21=STYLED_ITEM('',(#59),#60);
#22=STYLED_ITEM('',(#61),#62);
#23=STYLED_ITEM('',(#63),#64);
#24=APPLICATION_CONTEXT(' ');
#25=PRODUCT_CATEGORY('part','NONE');
#26=PRODUCT_RELATED_PRODUCT_CATEGORY('detail',' ',(#65));
#27=PRODUCT_DEFINITION_SHAPE('NONE','NONE',#66);
#28=ADVANCED_BREP_SHAPE_REPRESENTATION('E 1700_1.1x200',(#64,#67),#6);
#31=UNCERTAINTY_MEASURE_WITH_UNIT(LENGTH_MEASURE(1.0E-06),#33,'','');
#33= (CONVERSION_BASED_UNIT('MILLIMETRE',#70)LENGTH_UNIT()NAMED_UNIT(#73));
#34= (NAMED_UNIT(#75)PLANE_ANGLE_UNIT()SI_UNIT($,.RADIAN.));
#35= (NAMED_UNIT(#75)SOLID_ANGLE_UNIT()SI_UNIT($,.STERADIAN.));
#37=PRESENTATION_STYLE_ASSIGNMENT((#81));
#38=ADVANCED_FACE('',(#82),#83,.T.);
#39=PRESENTATION_STYLE_ASSIGNMENT((#84));
#40=ADVANCED_FACE('',(#85),#86,.T.);
#41=PRESENTATION_STYLE_ASSIGNMENT((#87));
#42=ADVANCED_FACE('',(#88),#89,.T.);
#43=PRESENTATION_STYLE_ASSIGNMENT((#90));
#44=ADVANCED_FACE('',(#91),#92,.T.);
#45=PRESENTATION_STYLE_ASSIGNMENT((#93));
#46=ADVANCED_FACE('',(#94),#95,.F.);
#47=PRESENTATION_STYLE_ASSIGNMENT((#96));
#48=ADVANCED_FACE('',(#97),#98,.F.);
#49=PRESENTATION_STYLE_ASSIGNMENT((#99));
#50=ADVANCED_FACE('',(#100,#101),#102,.T.);
#51=PRESENTATION_STYLE_ASSIGNMENT((#103));
#52=ADVANCED_FACE('',(#104),#105,.T.);
#53=PRESENTATION_STYLE_ASSIGNMENT((#106));
#54=ADVANCED_FACE('',(#107),#108,.T.);
#55=PRESENTATION_STYLE_ASSIGNMENT((#109));
#56=ADVANCED_FACE('',(#110),#111,.T.);
#57=PRESENTATION_STYLE_ASSIGNMENT((#112));
#58=ADVANCED_FACE('',(#113),#114,.T.);
#59=PRESENTATION_STYLE_ASSIGNMENT((#115));
#60=ADVANCED_FACE('',(#116),#117,.T.);
#61=PRESENTATION_STYLE_ASSIGNMENT((#118));
#62=ADVANCED_FACE('',(#119),#120,.T.);
#63=PRESENTATION_STYLE_ASSIGNMENT((#121));
#64=MANIFOLD_SOLID_BREP('E 1700_1.1x200',#122);
#65=PRODUCT('E 1700_1.1x200','E 1700_1.1x200','PART-E 1700_1.1x200-DESC',(#123));
#66=PRODUCT_DEFINITION('','NONE',#124,#2);
#67=AXIS2_PLACEMENT_3D('',#125,#126,#127);
#70=LENGTH_MEASURE_WITH_UNIT(LENGTH_MEASURE(1.0),#128);
#73=DIMENSIONAL_EXPONENTS(1.0,0.0,0.0,0.0,0.0,0.0,0.0);
#75=DIMENSIONAL_EXPONENTS(0.0,0.0,0.0,0.0,0.0,0.0,0.0);
#81=SURFACE_STYLE_USAGE(.BOTH.,#129);
#82=FACE_OUTER_BOUND('',#130,.T.);
#83=CYLINDRICAL_SURFACE('',#131,2.0);
#84=SURFACE_STYLE_USAGE(.BOTH.,#132);
#85=FACE_OUTER_BOUND('',#133,.T.);
#86=CYLINDRICAL_SURFACE('',#134,1.0);
#87=SURFACE_STYLE_USAGE(.BOTH.,#135);
#88=FACE_OUTER_BOUND('',#136,.T.);
#89=CONICAL_SURFACE('',#137,0.5,0.523598775598298);
#90=SURFACE_STYLE_USAGE(.BOTH.,#138);
#91=FACE_OUTER_BOUND('',#139,.T.);
#92=CYLINDRICAL_SURFACE('',#140,0.55);
#93=SURFACE_STYLE_USAGE(.BOTH.,#141);
#94=FACE_OUTER_BOUND('',#142,.T.);
#95=TOROIDAL_SURFACE('',#143,1.2,0.2);
#96=SURFACE_STYLE_USAGE(.BOTH.,#144);
#97=FACE_OUTER_BOUND('',#145,.T.);
#98=TOROIDAL_SURFACE('',#146,1.2,0.2);
#99=SURFACE_STYLE_USAGE(.BOTH.,#147);
#100=FACE_OUTER_BOUND('',#148,.T.);
#101=FACE_BOUND('',#149,.T.);
#102=PLANE('',#150);
#103=SURFACE_STYLE_USAGE(.BOTH.,#151);
#104=FACE_OUTER_BOUND('',#152,.T.);
#105=CYLINDRICAL_SURFACE('',#153,0.55);
#106=SURFACE_STYLE_USAGE(.BOTH.,#154);
#107=FACE_OUTER_BOUND('',#155,.T.);
#108=PLANE('',#156);
#109=SURFACE_STYLE_USAGE(.BOTH.,#157);
#110=FACE_OUTER_BOUND('',#158,.T.);
#111=CONICAL_SURFACE('',#159,0.5,0.523598775598298);
#112=SURFACE_STYLE_USAGE(.BOTH.,#160);
#113=FACE_OUTER_BOUND('',#161,.T.);
#114=CYLINDRICAL_SURFACE('',#162,1.0);
#115=SURFACE_STYLE_USAGE(.BOTH.,#163);
#116=FACE_OUTER_BOUND('',#164,.T.);
#117=CYLINDRICAL_SURFACE('',#165,2.0);
#118=SURFACE_STYLE_USAGE(.BOTH.,#166);
#119=FACE_OUTER_BOUND('',#167,.T.);
#120=PLANE('',#168);
#121=SURFACE_STYLE_USAGE(.BOTH.,#169);
#122=CLOSED_SHELL('',(#38,#40,#42,#44,#46,#48,#50,#52,#54,#56,#58,#60,#62));
#123=PRODUCT_CONTEXT('',#24,'mechanical');
#124=PRODUCT_DEFINITION_FORMATION_WITH_SPECIFIED_SOURCE(' ','NONE',#65,.NOT_KNOWN.);
#125=CARTESIAN_POINT('',(0.0,0.0,0.0));
#126=DIRECTION('',(0.0,0.0,1.0));
#127=DIRECTION('',(1.0,0.0,0.0));
#128= (NAMED_UNIT(#73)LENGTH_UNIT()SI_UNIT(.MILLI.,.METRE.));
#129=SURFACE_SIDE_STYLE('',(#171));
#130=EDGE_LOOP('',(#172,#173,#174,#175));
#131=AXIS2_PLACEMENT_3D('',#176,#177,#178);
#132=SURFACE_SIDE_STYLE('',(#179));
#133=EDGE_LOOP('',(#180,#181,#182,#183));
#134=AXIS2_PLACEMENT_3D('',#184,#185,#186);
#135=SURFACE_SIDE_STYLE('',(#187));
#136=EDGE_LOOP('',(#188,#189,#190,#191));
#137=AXIS2_PLACEMENT_3D('',#192,#193,#194);
#138=SURFACE_SIDE_STYLE('',(#195));
#139=EDGE_LOOP('',(#196,#197,#198,#199));
#140=AXIS2_PLACEMENT_3D('',#200,#201,#202);
#141=SURFACE_SIDE_STYLE('',(#203));
#142=EDGE_LOOP('',(#204,#205,#206,#207));
#143=AXIS2_PLACEMENT_3D('',#208,#209,#210);
#144=SURFACE_SIDE_STYLE('',(#211));
#145=EDGE_LOOP('',(#212,#213,#214,#215));
#146=AXIS2_PLACEMENT_3D('',#216,#217,#218);
#147=SURFACE_SIDE_STYLE('',(#219));
#148=EDGE_LOOP('',(#220,#221));
#149=EDGE_LOOP('',(#222,#223));
#150=AXIS2_PLACEMENT_3D('',#224,#225,#226);
#151=SURFACE_SIDE_STYLE('',(#227));
#152=EDGE_LOOP('',(#228,#229,#230,#231));
#153=AXIS2_PLACEMENT_3D('',#232,#233,#234);
#154=SURFACE_SIDE_STYLE('',(#235));
#155=EDGE_LOOP('',(#236,#237));
#156=AXIS2_PLACEMENT_3D('',#238,#239,#240);
#157=SURFACE_SIDE_STYLE('',(#241));
#158=EDGE_LOOP('',(#242,#243,#244,#245));
#159=AXIS2_PLACEMENT_3D('',#246,#247,#248);
#160=SURFACE_SIDE_STYLE('',(#249));
#161=EDGE_LOOP('',(#250,#251,#252,#253));
#162=AXIS2_PLACEMENT_3D('',#254,#255,#256);
#163=SURFACE_SIDE_STYLE('',(#257));
#164=EDGE_LOOP('',(#258,#259,#260,#261));
#165=AXIS2_PLACEMENT_3D('',#262,#263,#264);
#166=SURFACE_SIDE_STYLE('',(#265));
#167=EDGE_LOOP('',(#266,#267));
#168=AXIS2_PLACEMENT_3D('',#268,#269,#270);
#169=SURFACE_SIDE_STYLE('',(#271));
#171=SURFACE_STYLE_FILL_AREA(#272);
#172=ORIENTED_EDGE('',*,*,#273,.F.);
#173=ORIENTED_EDGE('',*,*,#274,.F.);
#174=ORIENTED_EDGE('',*,*,#275,.F.);
#175=ORIENTED_EDGE('',*,*,#276,.F.);
#176=CARTESIAN_POINT('',(0.0,0.0,1.0));
#177=DIRECTION('',(0.0,0.0,1.0));
#178=DIRECTION('',(1.0,0.0,0.0));
#179=SURFACE_STYLE_FILL_AREA(#277);
#180=ORIENTED_EDGE('',*,*,#278,.F.);
#181=ORIENTED_EDGE('',*,*,#279,.T.);
#182=ORIENTED_EDGE('',*,*,#280,.F.);
#183=ORIENTED_EDGE('',*,*,#281,.F.);
#184=CARTESIAN_POINT('',(0.0,0.0,38.110288568297));
#185=DIRECTION('',(0.0,0.0,1.0));
#186=DIRECTION('',(1.0,0.0,0.0));
#187=SURFACE_STYLE_FILL_AREA(#282);
#188=ORIENTED_EDGE('',*,*,#283,.F.);
#189=ORIENTED_EDGE('',*,*,#281,.T.);
#190=ORIENTED_EDGE('',*,*,#284,.F.);
#191=ORIENTED_EDGE('',*,*,#285,.T.);
#192=CARTESIAN_POINT('',(0.0,0.0,75.0866025403784));
#193=DIRECTION('',(-0.0,-0.0,-1.0));
#194=DIRECTION('',(1.0,0.0,0.0));
#195=SURFACE_STYLE_FILL_AREA(#286);
#196=ORIENTED_EDGE('',*,*,#287,.F.);
#197=ORIENTED_EDGE('',*,*,#285,.F.);
#198=ORIENTED_EDGE('',*,*,#288,.F.);
#199=ORIENTED_EDGE('',*,*,#289,.F.);
#200=CARTESIAN_POINT('',(0.0,0.0,137.5));
#201=DIRECTION('',(0.0,0.0,1.0));
#202=DIRECTION('',(1.0,0.0,0.0));
#203=SURFACE_STYLE_FILL_AREA(#290);
#204=ORIENTED_EDGE('',*,*,#291,.F.);
#205=ORIENTED_EDGE('',*,*,#292,.T.);
#206=ORIENTED_EDGE('',*,*,#293,.F.);
#207=ORIENTED_EDGE('',*,*,#294,.F.);
#208=CARTESIAN_POINT('',(0.0,0.0,2.2));
#209=DIRECTION('',(0.0,0.0,1.0));
#210=DIRECTION('',(1.0,0.0,0.0));
#211=SURFACE_STYLE_FILL_AREA(#295);
#212=ORIENTED_EDGE('',*,*,#291,.T.);
#213=ORIENTED_EDGE('',*,*,#279,.F.);
#214=ORIENTED_EDGE('',*,*,#293,.T.);
#215=ORIENTED_EDGE('',*,*,#296,.T.);
#216=CARTESIAN_POINT('',(0.0,0.0,2.2));
#217=DIRECTION('',(0.0,0.0,1.0));
#218=DIRECTION('',(1.0,0.0,0.0));
#219=SURFACE_STYLE_FILL_AREA(#297);
#220=ORIENTED_EDGE('',*,*,#276,.T.);
#221=ORIENTED_EDGE('',*,*,#298,.T.);
#222=ORIENTED_EDGE('',*,*,#296,.F.);
#223=ORIENTED_EDGE('',*,*,#292,.F.);
#224=CARTESIAN_POINT('',(0.0,0.0,2.0));
#225=DIRECTION('',(0.0,0.0,1.0));
#226=DIRECTION('',(1.0,0.0,0.0));
#227=SURFACE_STYLE_FILL_AREA(#299);
#228=ORIENTED_EDGE('',*,*,#287,.T.);
#229=ORIENTED_EDGE('',*,*,#300,.F.);
#230=ORIENTED_EDGE('',*,*,#288,.T.);
#231=ORIENTED_EDGE('',*,*,#301,.F.);
#232=CARTESIAN_POINT('',(0.0,0.0,137.5));
#233=DIRECTION('',(0.0,0.0,1.0));
#234=DIRECTION('',(1.0,0.0,0.0));
#235=SURFACE_STYLE_FILL_AREA(#302);
#236=ORIENTED_EDGE('',*,*,#289,.T.);
#237=ORIENTED_EDGE('',*,*,#300,.T.);
#238=CARTESIAN_POINT('',(0.0,0.0,200.0));
#239=DIRECTION('',(0.0,0.0,1.0));
#240=DIRECTION('',(1.0,0.0,0.0));
#241=SURFACE_STYLE_FILL_AREA(#303);
#242=ORIENTED_EDGE('',*,*,#283,.T.);
#243=ORIENTED_EDGE('',*,*,#301,.T.);
#244=ORIENTED_EDGE('',*,*,#284,.T.);
#245=ORIENTED_EDGE('',*,*,#304,.T.);
#246=CARTESIAN_POINT('',(0.0,0.0,75.0866025403784));
#247=DIRECTION('',(-0.0,-0.0,-1.0));
#248=DIRECTION('',(1.0,0.0,0.0));
#249=SURFACE_STYLE_FILL_AREA(#305);
#250=ORIENTED_EDGE('',*,*,#278,.T.);
#251=ORIENTED_EDGE('',*,*,#304,.F.);
#252=ORIENTED_EDGE('',*,*,#280,.T.);
#253=ORIENTED_EDGE('',*,*,#294,.T.);
#254=CARTESIAN_POINT('',(0.0,0.0,38.110288568297));
#255=DIRECTION('',(0.0,0.0,1.0));
#256=DIRECTION('',(1.0,0.0,0.0));
#257=SURFACE_STYLE_FILL_AREA(#306);
#258=ORIENTED_EDGE('',*,*,#273,.T.);
#259=ORIENTED_EDGE('',*,*,#298,.F.);
#260=ORIENTED_EDGE('',*,*,#275,.T.);
#261=ORIENTED_EDGE('',*,*,#307,.F.);
#262=CARTESIAN_POINT('',(0.0,0.0,1.0));
#263=DIRECTION('',(0.0,0.0,1.0));
#264=DIRECTION('',(1.0,0.0,0.0));
#265=SURFACE_STYLE_FILL_AREA(#308);
#266=ORIENTED_EDGE('',*,*,#307,.T.);
#267=ORIENTED_EDGE('',*,*,#274,.T.);
#268=CARTESIAN_POINT('',(0.0,0.0,0.0));
#269=DIRECTION('',(0.0,0.0,-1.0));
#270=DIRECTION('',(-1.0,0.0,0.0));
#271=SURFACE_STYLE_FILL_AREA(#309);
#272=FILL_AREA_STYLE('',(#310));
#273=EDGE_CURVE('',#311,#312,#313,.T.);
#274=EDGE_CURVE('',#314,#311,#315,.T.);
#275=EDGE_CURVE('',#316,#314,#317,.T.);
#276=EDGE_CURVE('',#312,#316,#318,.T.);
#277=FILL_AREA_STYLE('',(#319));
#278=EDGE_CURVE('',#320,#321,#322,.T.);
#279=EDGE_CURVE('',#320,#323,#324,.T.);
#280=EDGE_CURVE('',#325,#323,#326,.T.);
#281=EDGE_CURVE('',#321,#325,#327,.T.);
#282=FILL_AREA_STYLE('',(#328));
#283=EDGE_CURVE('',#321,#329,#330,.T.);
#284=EDGE_CURVE('',#331,#325,#332,.T.);
#285=EDGE_CURVE('',#331,#329,#333,.T.);
#286=FILL_AREA_STYLE('',(#334));
#287=EDGE_CURVE('',#329,#335,#336,.T.);
#288=EDGE_CURVE('',#337,#331,#338,.T.);
#289=EDGE_CURVE('',#335,#337,#339,.T.);
#290=FILL_AREA_STYLE('',(#340));
#291=EDGE_CURVE('',#341,#323,#342,.T.);
#292=EDGE_CURVE('',#341,#343,#344,.T.);
#293=EDGE_CURVE('',#320,#343,#345,.T.);
#294=EDGE_CURVE('',#323,#320,#346,.T.);
#295=FILL_AREA_STYLE('',(#347));
#296=EDGE_CURVE('',#343,#341,#348,.T.);
#297=FILL_AREA_STYLE('',(#349));
#298=EDGE_CURVE('',#316,#312,#350,.T.);
#299=FILL_AREA_STYLE('',(#351));
#300=EDGE_CURVE('',#337,#335,#352,.T.);
#301=EDGE_CURVE('',#329,#331,#353,.T.);
#302=FILL_AREA_STYLE('',(#354));
#303=FILL_AREA_STYLE('',(#355));
#304=EDGE_CURVE('',#325,#321,#356,.T.);
#305=FILL_AREA_STYLE('',(#357));
#306=FILL_AREA_STYLE('',(#358));
#307=EDGE_CURVE('',#311,#314,#359,.T.);
#308=FILL_AREA_STYLE('',(#360));
#309=FILL_AREA_STYLE('',(#361));
#310=FILL_AREA_STYLE_COLOUR('',#362);
#311=VERTEX_POINT('',#363);
#312=VERTEX_POINT('',#364);
#313=LINE('',#365,#366);
#314=VERTEX_POINT('',#367);
#315=CIRCLE('',#368,2.0);
#316=VERTEX_POINT('',#369);
#317=LINE('',#370,#371);
#318=CIRCLE('',#372,2.0);
#319=FILL_AREA_STYLE_COLOUR('',#373);
#320=VERTEX_POINT('',#374);
#321=VERTEX_POINT('',#375);
#322=LINE('',#376,#377);
#323=VERTEX_POINT('',#378);
#324=CIRCLE('',#379,1.0);
#325=VERTEX_POINT('',#380);
#326=LINE('',#381,#382);
#327=CIRCLE('',#383,1.0);
#328=FILL_AREA_STYLE_COLOUR('',#384);
#329=VERTEX_POINT('',#385);
#330=LINE('',#386,#387);
#331=VERTEX_POINT('',#388);
#332=LINE('',#389,#390);
#333=CIRCLE('',#391,0.55);
#334=FILL_AREA_STYLE_COLOUR('',#392);
#335=VERTEX_POINT('',#393);
#336=LINE('',#394,#395);
#337=VERTEX_POINT('',#396);
#338=LINE('',#397,#398);
#339=CIRCLE('',#399,0.55);
#340=FILL_AREA_STYLE_COLOUR('',#400);
#341=VERTEX_POINT('',#401);
#342=CIRCLE('',#402,0.2);
#343=VERTEX_POINT('',#403);
#344=CIRCLE('',#404,1.2);
#345=CIRCLE('',#405,0.2);
#346=CIRCLE('',#406,1.0);
#347=FILL_AREA_STYLE_COLOUR('',#407);
#348=CIRCLE('',#408,1.2);
#349=FILL_AREA_STYLE_COLOUR('',#409);
#350=CIRCLE('',#410,2.0);
#351=FILL_AREA_STYLE_COLOUR('',#411);
#352=CIRCLE('',#412,0.55);
#353=CIRCLE('',#413,0.55);
#354=FILL_AREA_STYLE_COLOUR('',#414);
#355=FILL_AREA_STYLE_COLOUR('',#415);
#356=CIRCLE('',#416,1.0);
#357=FILL_AREA_STYLE_COLOUR('',#417);
#358=FILL_AREA_STYLE_COLOUR('',#418);
#359=CIRCLE('',#419,2.0);
#360=FILL_AREA_STYLE_COLOUR('',#420);
#361=FILL_AREA_STYLE_COLOUR('',#421);
#362=COLOUR_RGB('',0.752941191196442,0.752941191196442,0.752941191196442);
#363=CARTESIAN_POINT('',(2.0,0.0,0.0));
#364=CARTESIAN_POINT('',(2.0,0.0,2.0));
#365=CARTESIAN_POINT('',(2.0,-2.44929359829471E-16,1.0));
#366=VECTOR('',#422,1.0);
#367=CARTESIAN_POINT('',(-2.0,2.44929359829471E-16,0.0));
#368=AXIS2_PLACEMENT_3D('',#423,#424,#425);
#369=CARTESIAN_POINT('',(-2.0,2.44929359829471E-16,2.0));
#370=CARTESIAN_POINT('',(-2.0,2.44929359829471E-16,1.0));
#371=VECTOR('',#426,1.0);
#372=AXIS2_PLACEMENT_3D('',#427,#428,#429);
#373=COLOUR_RGB('',0.752941191196442,0.752941191196442,0.752941191196442);
#374=CARTESIAN_POINT('',(1.0,0.0,2.2));
#375=CARTESIAN_POINT('',(1.0,0.0,74.220577136594));
#376=CARTESIAN_POINT('',(1.0,-1.22464679914735E-16,38.110288568297));
#377=VECTOR('',#430,1.0);
#378=CARTESIAN_POINT('',(-1.0,1.22464679914735E-16,2.2));
#379=AXIS2_PLACEMENT_3D('',#431,#432,#433);
#380=CARTESIAN_POINT('',(-1.0,1.22464679914735E-16,74.220577136594));
#381=CARTESIAN_POINT('',(-1.0,1.22464679914735E-16,38.110288568297));
#382=VECTOR('',#434,1.0);
#383=AXIS2_PLACEMENT_3D('',#435,#436,#437);
#384=COLOUR_RGB('',0.752941191196442,0.752941191196442,0.752941191196442);
#385=CARTESIAN_POINT('',(0.55,0.0,75.0));
#386=CARTESIAN_POINT('',(0.5,-6.12323399573676E-17,75.0866025403784));
#387=VECTOR('',#438,1.0);
#388=CARTESIAN_POINT('',(-0.55,6.73555739531044E-17,75.0));
#389=CARTESIAN_POINT('',(-0.5,6.12323399573676E-17,75.0866025403784));
#390=VECTOR('',#439,1.0);
#391=AXIS2_PLACEMENT_3D('',#440,#441,#442);
#392=COLOUR_RGB('',0.752941191196442,0.752941191196442,0.752941191196442);
#393=CARTESIAN_POINT('',(0.55,0.0,200.0));
#394=CARTESIAN_POINT('',(0.55,-6.73555739531044E-17,137.5));
#395=VECTOR('',#443,1.0);
#396=CARTESIAN_POINT('',(-0.55,6.73555739531044E-17,200.0));
#397=CARTESIAN_POINT('',(-0.55,6.73555739531044E-17,137.5));
#398=VECTOR('',#444,1.0);
#399=AXIS2_PLACEMENT_3D('',#445,#446,#447);
#400=COLOUR_RGB('',0.752941191196442,0.752941191196442,0.752941191196442);
#401=CARTESIAN_POINT('',(-1.2,1.46957615897682E-16,2.0));
#402=AXIS2_PLACEMENT_3D('',#448,#449,#450);
#403=CARTESIAN_POINT('',(1.2,0.0,2.0));
#404=AXIS2_PLACEMENT_3D('',#451,#452,#453);
#405=AXIS2_PLACEMENT_3D('',#454,#455,#456);
#406=AXIS2_PLACEMENT_3D('',#457,#458,#459);
#407=COLOUR_RGB('',0.752941191196442,0.752941191196442,0.752941191196442);
#408=AXIS2_PLACEMENT_3D('',#460,#461,#462);
#409=COLOUR_RGB('',0.752941191196442,0.752941191196442,0.752941191196442);
#410=AXIS2_PLACEMENT_3D('',#463,#464,#465);
#411=COLOUR_RGB('',0.752941191196442,0.752941191196442,0.752941191196442);
#412=AXIS2_PLACEMENT_3D('',#466,#467,#468);
#413=AXIS2_PLACEMENT_3D('',#469,#470,#471);
#414=COLOUR_RGB('',0.752941191196442,0.752941191196442,0.752941191196442);
#415=COLOUR_RGB('',0.752941191196442,0.752941191196442,0.752941191196442);
#416=AXIS2_PLACEMENT_3D('',#472,#473,#474);
#417=COLOUR_RGB('',0.752941191196442,0.752941191196442,0.752941191196442);
#418=COLOUR_RGB('',0.752941191196442,0.752941191196442,0.752941191196442);
#419=AXIS2_PLACEMENT_3D('',#475,#476,#477);
#420=COLOUR_RGB('',0.752941191196442,0.752941191196442,0.752941191196442);
#421=COLOUR_RGB('',0.752941191196442,0.752941191196442,0.752941191196442);
#422=DIRECTION('',(0.0,0.0,1.0));
#423=CARTESIAN_POINT('',(0.0,0.0,0.0));
#424=DIRECTION('',(0.0,0.0,-1.0));
#425=DIRECTION('',(1.0,0.0,0.0));
#426=DIRECTION('',(-0.0,-0.0,-1.0));
#427=CARTESIAN_POINT('',(0.0,0.0,2.0));
#428=DIRECTION('',(0.0,0.0,1.0));
#429=DIRECTION('',(1.0,0.0,0.0));
#430=DIRECTION('',(0.0,0.0,1.0));
#431=CARTESIAN_POINT('',(0.0,0.0,2.2));
#432=DIRECTION('',(0.0,0.0,1.0));
#433=DIRECTION('',(1.0,0.0,0.0));
#434=DIRECTION('',(-0.0,-0.0,-1.0));
#435=CARTESIAN_POINT('',(0.0,0.0,74.220577136594));
#436=DIRECTION('',(0.0,0.0,1.0));
#437=DIRECTION('',(1.0,0.0,0.0));
#438=DIRECTION('',(-0.499999999999999,6.12323399573675E-17,0.866025403784439));
#439=DIRECTION('',(-0.499999999999999,6.12323399573675E-17,-0.866025403784439));
#440=CARTESIAN_POINT('',(0.0,0.0,75.0));
#441=DIRECTION('',(0.0,0.0,-1.0));
#442=DIRECTION('',(1.0,0.0,0.0));
#443=DIRECTION('',(0.0,0.0,1.0));
#444=DIRECTION('',(-0.0,-0.0,-1.0));
#445=CARTESIAN_POINT('',(0.0,0.0,200.0));
#446=DIRECTION('',(0.0,0.0,1.0));
#447=DIRECTION('',(1.0,0.0,0.0));
#448=CARTESIAN_POINT('',(-1.2,1.46957615897682E-16,2.2));
#449=DIRECTION('',(-1.22464679914735E-16,-1.0,0.0));
#450=DIRECTION('',(-1.0,1.22464679914735E-16,-0.0));
#451=CARTESIAN_POINT('',(0.0,0.0,2.0));
#452=DIRECTION('',(0.0,0.0,1.0));
#453=DIRECTION('',(1.0,0.0,0.0));
#454=CARTESIAN_POINT('',(1.2,-1.46957615897682E-16,2.2));
#455=DIRECTION('',(-1.22464679914735E-16,-1.0,0.0));
#456=DIRECTION('',(1.0,-1.22464679914735E-16,0.0));
#457=CARTESIAN_POINT('',(0.0,0.0,2.2));
#458=DIRECTION('',(0.0,0.0,1.0));
#459=DIRECTION('',(1.0,0.0,0.0));
#460=CARTESIAN_POINT('',(0.0,0.0,2.0));
#461=DIRECTION('',(0.0,0.0,1.0));
#462=DIRECTION('',(1.0,0.0,0.0));
#463=CARTESIAN_POINT('',(0.0,0.0,2.0));
#464=DIRECTION('',(0.0,0.0,1.0));
#465=DIRECTION('',(1.0,0.0,0.0));
#466=CARTESIAN_POINT('',(0.0,0.0,200.0));
#467=DIRECTION('',(0.0,0.0,1.0));
#468=DIRECTION('',(1.0,0.0,0.0));
#469=CARTESIAN_POINT('',(0.0,0.0,75.0));
#470=DIRECTION('',(0.0,0.0,-1.0));
#471=DIRECTION('',(1.0,0.0,0.0));
#472=CARTESIAN_POINT('',(0.0,0.0,74.220577136594));
#473=DIRECTION('',(0.0,0.0,1.0));
#474=DIRECTION('',(1.0,0.0,0.0));
#475=CARTESIAN_POINT('',(0.0,0.0,0.0));
#476=DIRECTION('',(0.0,0.0,-1.0));
#477=DIRECTION('',(1.0,0.0,0.0));
ENDSEC;
END-ISO-10303-21;
