ISO-10303-21;
HEADER;
FILE_DESCRIPTION(('STEP AP214'),'1');
FILE_NAME('CH-1,3x63_L25.stp','2023-09-29T09:14:53',(' '),(' '),'Spatial InterOp 3D',' ',' ');
FILE_SCHEMA(('automotive_design'));
ENDSEC;
DATA;
#1=MECHANICAL_DESIGN_GEOMETRIC_PRESENTATION_REPRESENTATION(' ',(#10,#11,#12,#13,#14,#15,#16,#17,#18,#19,#20,#21,#22,#23,#24),#6);
#2=PRODUCT_DEFINITION_CONTEXT('',#25,'design');
#3=APPLICATION_PROTOCOL_DEFINITION('INTERNATIONAL STANDARD','automotive_design',1994,#25);
#4=PRODUCT_CATEGORY_RELATIONSHIP('NONE','NONE',#26,#27);
#5=SHAPE_DEFINITION_REPRESENTATION(#28,#29);
#6= (GEOMETRIC_REPRESENTATION_CONTEXT(3)GLOBAL_UNCERTAINTY_ASSIGNED_CONTEXT((#32))GLOBAL_UNIT_ASSIGNED_CONTEXT((#34,#35,#36))REPRESENTATION_CONTEXT('NONE','WORKSPACE'));
#10=STYLED_ITEM('',(#38),#39);
#11=STYLED_ITEM('',(#40),#41);
#12=STYLED_ITEM('',(#42),#43);
#13=STYLED_ITEM('',(#44),#45);
#14=STYLED_ITEM('',(#46),#47);
#15=STYLED_ITEM('',(#48),#49);
#16=STYLED_ITEM('',(#50),#51);
#17=STYLED_ITEM('',(#52),#53);
#18=STYLED_ITEM('',(#54),#55);
#19=STYLED_ITEM('',(#56),#57);
#20=STYLED_ITEM('',(#58),#59);
#21=STYLED_ITEM('',(#60),#61);
#22=STYLED_ITEM('',(#62),#63);
#23=STYLED_ITEM('',(#64),#65);
#24=STYLED_ITEM('',(#66),#67);
#25=APPLICATION_CONTEXT(' ');
#26=PRODUCT_CATEGORY('part','NONE');
#27=PRODUCT_RELATED_PRODUCT_CATEGORY('detail',' ',(#68));
#28=PRODUCT_DEFINITION_SHAPE('NONE','NONE',#69);
#29=ADVANCED_BREP_SHAPE_REPRESENTATION('1',(#70,#71),#6);
#32=UNCERTAINTY_MEASURE_WITH_UNIT(LENGTH_MEASURE(1.0E-006),#34,'','');
#34= (CONVERSION_BASED_UNIT('METRE',#74)LENGTH_UNIT()NAMED_UNIT(#77));
#35= (NAMED_UNIT(#79)PLANE_ANGLE_UNIT()SI_UNIT($,.RADIAN.));
#36= (NAMED_UNIT(#79)SOLID_ANGLE_UNIT()SI_UNIT($,.STERADIAN.));
#38=PRESENTATION_STYLE_ASSIGNMENT((#85));
#39=ADVANCED_FACE('',(#86,#87),#88,.T.);
#40=PRESENTATION_STYLE_ASSIGNMENT((#89));
#41=ADVANCED_FACE('',(#90,#91),#92,.T.);
#42=PRESENTATION_STYLE_ASSIGNMENT((#93));
#43=ADVANCED_FACE('',(#94,#95),#96,.T.);
#44=PRESENTATION_STYLE_ASSIGNMENT((#97));
#45=ADVANCED_FACE('',(#98,#99),#100,.T.);
#46=PRESENTATION_STYLE_ASSIGNMENT((#101));
#47=ADVANCED_FACE('',(#102,#103),#104,.T.);
#48=PRESENTATION_STYLE_ASSIGNMENT((#105));
#49=ADVANCED_FACE('',(#106,#107),#108,.F.);
#50=PRESENTATION_STYLE_ASSIGNMENT((#109));
#51=ADVANCED_FACE('',(#110),#111,.T.);
#52=PRESENTATION_STYLE_ASSIGNMENT((#112));
#53=ADVANCED_FACE('',(#113),#114,.T.);
#54=PRESENTATION_STYLE_ASSIGNMENT((#115));
#55=EDGE_CURVE('',#116,#116,#117,.T.);
#56=PRESENTATION_STYLE_ASSIGNMENT((#118));
#57=EDGE_CURVE('',#119,#119,#120,.T.);
#58=PRESENTATION_STYLE_ASSIGNMENT((#121));
#59=EDGE_CURVE('',#122,#122,#123,.T.);
#60=PRESENTATION_STYLE_ASSIGNMENT((#124));
#61=EDGE_CURVE('',#125,#125,#126,.T.);
#62=PRESENTATION_STYLE_ASSIGNMENT((#127));
#63=EDGE_CURVE('',#128,#128,#129,.T.);
#64=PRESENTATION_STYLE_ASSIGNMENT((#130));
#65=EDGE_CURVE('',#131,#131,#132,.T.);
#66=PRESENTATION_STYLE_ASSIGNMENT((#133));
#67=EDGE_CURVE('',#134,#134,#135,.T.);
#68=PRODUCT('1','1','PART-1-DESC',(#136));
#69=PRODUCT_DEFINITION('NONE','NONE',#137,#2);
#70=MANIFOLD_SOLID_BREP('1',#138);
#71=AXIS2_PLACEMENT_3D('',#139,#140,#141);
#74=LENGTH_MEASURE_WITH_UNIT(LENGTH_MEASURE(1.0),#142);
#77=DIMENSIONAL_EXPONENTS(1.0,0.0,0.0,0.0,0.0,0.0,0.0);
#79=DIMENSIONAL_EXPONENTS(0.0,0.0,0.0,0.0,0.0,0.0,0.0);
#85=SURFACE_STYLE_USAGE(.BOTH.,#143);
#86=FACE_OUTER_BOUND('',#144,.T.);
#87=FACE_BOUND('',#145,.T.);
#88=CONICAL_SURFACE('',#146,0.000825,0.523598775633374);
#89=SURFACE_STYLE_USAGE(.BOTH.,#147);
#90=FACE_OUTER_BOUND('',#148,.T.);
#91=FACE_OUTER_BOUND('',#149,.T.);
#92=CYLINDRICAL_SURFACE('',#150,0.00100000000005);
#93=SURFACE_STYLE_USAGE(.BOTH.,#151);
#94=FACE_OUTER_BOUND('',#152,.T.);
#95=FACE_OUTER_BOUND('',#153,.T.);
#96=CYLINDRICAL_SURFACE('',#154,0.00065);
#97=SURFACE_STYLE_USAGE(.BOTH.,#155);
#98=FACE_OUTER_BOUND('',#156,.T.);
#99=FACE_OUTER_BOUND('',#157,.T.);
#100=CYLINDRICAL_SURFACE('',#158,0.002);
#101=SURFACE_STYLE_USAGE(.BOTH.,#159);
#102=FACE_OUTER_BOUND('',#160,.T.);
#103=FACE_BOUND('',#161,.T.);
#104=PLANE('',#162);
#105=SURFACE_STYLE_USAGE(.BOTH.,#163);
#106=FACE_OUTER_BOUND('',#164,.T.);
#107=FACE_OUTER_BOUND('',#165,.T.);
#108=TOROIDAL_SURFACE('',#166,0.0012000000001,0.000199999999999999);
#109=SURFACE_STYLE_USAGE(.BOTH.,#167);
#110=FACE_OUTER_BOUND('',#168,.T.);
#111=PLANE('',#169);
#112=SURFACE_STYLE_USAGE(.BOTH.,#170);
#113=FACE_OUTER_BOUND('',#171,.T.);
#114=PLANE('',#172);
#115=CURVE_STYLE('',#173,POSITIVE_LENGTH_MEASURE(1.0E-006),#174);
#116=VERTEX_POINT('',#175);
#117=CIRCLE('',#176,0.001);
#118=CURVE_STYLE('',#177,POSITIVE_LENGTH_MEASURE(1.0E-006),#178);
#119=VERTEX_POINT('',#179);
#120=CIRCLE('',#180,0.00065);
#121=CURVE_STYLE('',#181,POSITIVE_LENGTH_MEASURE(1.0E-006),#182);
#122=VERTEX_POINT('',#183);
#123=CIRCLE('',#184,0.0010000000001);
#124=CURVE_STYLE('',#185,POSITIVE_LENGTH_MEASURE(1.0E-006),#186);
#125=VERTEX_POINT('',#187);
#126=CIRCLE('',#188,0.00065);
#127=CURVE_STYLE('',#189,POSITIVE_LENGTH_MEASURE(1.0E-006),#190);
#128=VERTEX_POINT('',#191);
#129=CIRCLE('',#192,0.002);
#130=CURVE_STYLE('',#193,POSITIVE_LENGTH_MEASURE(1.0E-006),#194);
#131=VERTEX_POINT('',#195);
#132=CIRCLE('',#196,0.002);
#133=CURVE_STYLE('',#197,POSITIVE_LENGTH_MEASURE(1.0E-006),#198);
#134=VERTEX_POINT('',#199);
#135=CIRCLE('',#200,0.0012);
#136=PRODUCT_CONTEXT('',#25,'mechanical');
#137=PRODUCT_DEFINITION_FORMATION_WITH_SPECIFIED_SOURCE(' ','NONE',#68,.NOT_KNOWN.);
#138=CLOSED_SHELL('',(#39,#41,#43,#45,#47,#49,#51,#53));
#139=CARTESIAN_POINT('',(0.0,0.0,0.0));
#140=DIRECTION('',(0.0,0.0,1.0));
#141=DIRECTION('',(1.0,0.0,0.0));
#142= (NAMED_UNIT(#77)LENGTH_UNIT()SI_UNIT($,.METRE.));
#143=SURFACE_SIDE_STYLE('',(#202));
#144=EDGE_LOOP('',(#203));
#145=EDGE_LOOP('',(#204));
#146=AXIS2_PLACEMENT_3D('',#205,#206,#207);
#147=SURFACE_SIDE_STYLE('',(#208));
#148=EDGE_LOOP('',(#209));
#149=EDGE_LOOP('',(#210));
#150=AXIS2_PLACEMENT_3D('',#211,#212,#213);
#151=SURFACE_SIDE_STYLE('',(#214));
#152=EDGE_LOOP('',(#215));
#153=EDGE_LOOP('',(#216));
#154=AXIS2_PLACEMENT_3D('',#217,#218,#219);
#155=SURFACE_SIDE_STYLE('',(#220));
#156=EDGE_LOOP('',(#221));
#157=EDGE_LOOP('',(#222));
#158=AXIS2_PLACEMENT_3D('',#223,#224,#225);
#159=SURFACE_SIDE_STYLE('',(#226));
#160=EDGE_LOOP('',(#227));
#161=EDGE_LOOP('',(#228));
#162=AXIS2_PLACEMENT_3D('',#229,#230,#231);
#163=SURFACE_SIDE_STYLE('',(#232));
#164=EDGE_LOOP('',(#233));
#165=EDGE_LOOP('',(#234));
#166=AXIS2_PLACEMENT_3D('',#235,#236,#237);
#167=SURFACE_SIDE_STYLE('',(#238));
#168=EDGE_LOOP('',(#239));
#169=AXIS2_PLACEMENT_3D('',#240,#241,#242);
#170=SURFACE_SIDE_STYLE('',(#243));
#171=EDGE_LOOP('',(#244));
#172=AXIS2_PLACEMENT_3D('',#245,#246,#247);
#173=DRAUGHTING_PRE_DEFINED_CURVE_FONT('continuous');
#174=COLOUR_RGB('',0.149019613862038,0.180392161011696,0.219607844948769);
#175=CARTESIAN_POINT('',(0.0243937822174,0.0,0.001));
#176=AXIS2_PLACEMENT_3D('',#248,#249,#250);
#177=DRAUGHTING_PRE_DEFINED_CURVE_FONT('continuous');
#178=COLOUR_RGB('',0.149019613862038,0.180392161011696,0.219607844948769);
#179=CARTESIAN_POINT('',(0.025,0.0,0.00065));
#180=AXIS2_PLACEMENT_3D('',#251,#252,#253);
#181=DRAUGHTING_PRE_DEFINED_CURVE_FONT('continuous');
#182=COLOUR_RGB('',0.149019613862038,0.180392161011696,0.219607844948769);
#183=CARTESIAN_POINT('',(0.0022,0.0,0.0010000000001));
#184=AXIS2_PLACEMENT_3D('',#254,#255,#256);
#185=DRAUGHTING_PRE_DEFINED_CURVE_FONT('continuous');
#186=COLOUR_RGB('',0.149019613862038,0.180392161011696,0.219607844948769);
#187=CARTESIAN_POINT('',(0.063,0.0,0.00065));
#188=AXIS2_PLACEMENT_3D('',#257,#258,#259);
#189=DRAUGHTING_PRE_DEFINED_CURVE_FONT('continuous');
#190=COLOUR_RGB('',0.149019613862038,0.180392161011696,0.219607844948769);
#191=CARTESIAN_POINT('',(0.002,0.0,0.002));
#192=AXIS2_PLACEMENT_3D('',#260,#261,#262);
#193=DRAUGHTING_PRE_DEFINED_CURVE_FONT('continuous');
#194=COLOUR_RGB('',0.149019613862038,0.180392161011696,0.219607844948769);
#195=CARTESIAN_POINT('',(0.0,0.0,0.002));
#196=AXIS2_PLACEMENT_3D('',#263,#264,#265);
#197=DRAUGHTING_PRE_DEFINED_CURVE_FONT('continuous');
#198=COLOUR_RGB('',0.149019613862038,0.180392161011696,0.219607844948769);
#199=CARTESIAN_POINT('',(0.002,0.0,0.0012));
#200=AXIS2_PLACEMENT_3D('',#266,#267,#268);
#202=SURFACE_STYLE_FILL_AREA(#269);
#203=ORIENTED_EDGE('',*,*,#55,.T.);
#204=ORIENTED_EDGE('',*,*,#57,.F.);
#205=CARTESIAN_POINT('',(0.0246968911087,0.0,0.0));
#206=DIRECTION('',(-1.0,-0.0,0.0));
#207=DIRECTION('',(0.0,0.0,1.0));
#208=SURFACE_STYLE_FILL_AREA(#270);
#209=ORIENTED_EDGE('',*,*,#55,.F.);
#210=ORIENTED_EDGE('',*,*,#59,.T.);
#211=CARTESIAN_POINT('',(0.0132968911087,0.0,0.0));
#212=DIRECTION('',(1.0,0.0,-0.0));
#213=DIRECTION('',(0.0,0.0,1.0));
#214=SURFACE_STYLE_FILL_AREA(#271);
#215=ORIENTED_EDGE('',*,*,#61,.F.);
#216=ORIENTED_EDGE('',*,*,#57,.T.);
#217=CARTESIAN_POINT('',(0.044,0.0,0.0));
#218=DIRECTION('',(1.0,0.0,-0.0));
#219=DIRECTION('',(0.0,0.0,1.0));
#220=SURFACE_STYLE_FILL_AREA(#272);
#221=ORIENTED_EDGE('',*,*,#63,.F.);
#222=ORIENTED_EDGE('',*,*,#65,.T.);
#223=CARTESIAN_POINT('',(0.001,0.0,0.0));
#224=DIRECTION('',(1.0,0.0,-0.0));
#225=DIRECTION('',(0.0,0.0,1.0));
#226=SURFACE_STYLE_FILL_AREA(#273);
#227=ORIENTED_EDGE('',*,*,#63,.T.);
#228=ORIENTED_EDGE('',*,*,#67,.F.);
#229=CARTESIAN_POINT('',(0.002,0.0,0.0016));
#230=DIRECTION('',(1.0,-0.0,0.0));
#231=DIRECTION('',(0.0,1.0,0.0));
#232=SURFACE_STYLE_FILL_AREA(#274);
#233=ORIENTED_EDGE('',*,*,#59,.F.);
#234=ORIENTED_EDGE('',*,*,#67,.T.);
#235=CARTESIAN_POINT('',(0.0022000000001,0.0,0.0));
#236=DIRECTION('',(1.0,0.0,0.0));
#237=DIRECTION('',(0.0,0.0,-1.0));
#238=SURFACE_STYLE_FILL_AREA(#275);
#239=ORIENTED_EDGE('',*,*,#65,.F.);
#240=CARTESIAN_POINT('',(0.0,0.0,0.001));
#241=DIRECTION('',(-1.0,0.0,0.0));
#242=DIRECTION('',(0.0,0.0,1.0));
#243=SURFACE_STYLE_FILL_AREA(#276);
#244=ORIENTED_EDGE('',*,*,#61,.T.);
#245=CARTESIAN_POINT('',(0.063,0.0,0.000325));
#246=DIRECTION('',(1.0,-0.0,0.0));
#247=DIRECTION('',(0.0,1.0,0.0));
#248=CARTESIAN_POINT('',(0.0243937822174,0.0,0.0));
#249=DIRECTION('',(1.0,0.0,-0.0));
#250=DIRECTION('',(0.0,0.0,1.0));
#251=CARTESIAN_POINT('',(0.025,0.0,0.0));
#252=DIRECTION('',(1.0,0.0,-0.0));
#253=DIRECTION('',(0.0,0.0,1.0));
#254=CARTESIAN_POINT('',(0.0022,0.0,0.0));
#255=DIRECTION('',(1.0,0.0,-0.0));
#256=DIRECTION('',(0.0,0.0,1.0));
#257=CARTESIAN_POINT('',(0.063,0.0,0.0));
#258=DIRECTION('',(1.0,0.0,-0.0));
#259=DIRECTION('',(0.0,0.0,1.0));
#260=CARTESIAN_POINT('',(0.002,0.0,0.0));
#261=DIRECTION('',(1.0,0.0,-0.0));
#262=DIRECTION('',(0.0,0.0,1.0));
#263=CARTESIAN_POINT('',(0.0,0.0,0.0));
#264=DIRECTION('',(1.0,0.0,-0.0));
#265=DIRECTION('',(0.0,0.0,1.0));
#266=CARTESIAN_POINT('',(0.002,0.0,0.0));
#267=DIRECTION('',(1.0,0.0,-0.0));
#268=DIRECTION('',(0.0,0.0,1.0));
#269=FILL_AREA_STYLE('',(#277));
#270=FILL_AREA_STYLE('',(#278));
#271=FILL_AREA_STYLE('',(#279));
#272=FILL_AREA_STYLE('',(#280));
#273=FILL_AREA_STYLE('',(#281));
#274=FILL_AREA_STYLE('',(#282));
#275=FILL_AREA_STYLE('',(#283));
#276=FILL_AREA_STYLE('',(#284));
#277=FILL_AREA_STYLE_COLOUR('',#285);
#278=FILL_AREA_STYLE_COLOUR('',#286);
#279=FILL_AREA_STYLE_COLOUR('',#287);
#280=FILL_AREA_STYLE_COLOUR('',#288);
#281=FILL_AREA_STYLE_COLOUR('',#289);
#282=FILL_AREA_STYLE_COLOUR('',#290);
#283=FILL_AREA_STYLE_COLOUR('',#291);
#284=FILL_AREA_STYLE_COLOUR('',#292);
#285=COLOUR_RGB('',0.752941191196442,0.752941191196442,0.752941191196442);
#286=COLOUR_RGB('',0.752941191196442,0.752941191196442,0.752941191196442);
#287=COLOUR_RGB('',0.752941191196442,0.752941191196442,0.752941191196442);
#288=COLOUR_RGB('',0.752941191196442,0.752941191196442,0.752941191196442);
#289=COLOUR_RGB('',0.752941191196442,0.752941191196442,0.752941191196442);
#290=COLOUR_RGB('',0.752941191196442,0.752941191196442,0.752941191196442);
#291=COLOUR_RGB('',0.752941191196442,0.752941191196442,0.752941191196442);
#292=COLOUR_RGB('',0.752941191196442,0.752941191196442,0.752941191196442);
#293=PRESENTATION_LAYER_ASSIGNMENT('LAYER_','',(#70));
ENDSEC;
END-ISO-10303-21;
