ISO-10303-21;
HEADER;
FILE_DESCRIPTION( ( 'STEP AP203' ), ' ' );
FILE_NAME( 'p:/temp/worker_1/2660_2564/app_43_02016031611543717324294192d056f_000000_00_00_000000/format_0/GR M3x6.stp', '2016-03-16T10:54:38', ( '' ), ( '' ), ' ', 'PARTsolutions', ' ' );
FILE_SCHEMA( ( 'CONFIG_CONTROL_DESIGN' ) );
ENDSEC;
DATA;
#1 = DESIGN_CONTEXT( '', #27, 'design' );
#2 = APPLICATION_PROTOCOL_DEFINITION( 'international standard', 'config_control_design', 1994, #27 );
#3 = PRODUCT_CATEGORY_RELATIONSHIP( 'NONE', 'NONE', #28, #29 );
#4 = DATE_AND_TIME( #30, #31 );
#5 = DATE_TIME_ROLE( 'creation_date' );
#6 = DATE_TIME_ROLE( 'classification_date' );
#7 = PERSON_AND_ORGANIZATION_ROLE( 'creator' );
#8 = PERSON_AND_ORGANIZATION_ROLE( 'design_supplier' );
#9 = PERSON_AND_ORGANIZATION_ROLE( 'classification_officer' );
#10 = PERSON_AND_ORGANIZATION_ROLE( 'design_owner' );
#11 = APPROVAL_PERSON_ORGANIZATION( #32, #33, #34 );
#12 = APPROVAL_DATE_TIME( #4, #33 );
#13 = CC_DESIGN_APPROVAL( #33, ( #35, #36, #37 ) );
#14 = CC_DESIGN_DATE_AND_TIME_ASSIGNMENT( #4, #5, ( #37 ) );
#15 = CC_DESIGN_DATE_AND_TIME_ASSIGNMENT( #4, #6, ( #35 ) );
#16 = CC_DESIGN_PERSON_AND_ORGANIZATION_ASSIGNMENT( #32, #10, ( #38 ) );
#17 = CC_DESIGN_PERSON_AND_ORGANIZATION_ASSIGNMENT( #32, #7, ( #37 ) );
#18 = CC_DESIGN_PERSON_AND_ORGANIZATION_ASSIGNMENT( #32, #7, ( #36 ) );
#19 = CC_DESIGN_PERSON_AND_ORGANIZATION_ASSIGNMENT( #32, #8, ( #36 ) );
#20 = CC_DESIGN_SECURITY_CLASSIFICATION( #35, ( #36 ) );
#21 = CC_DESIGN_PERSON_AND_ORGANIZATION_ASSIGNMENT( #32, #9, ( #35 ) );
#22 = SHAPE_DEFINITION_REPRESENTATION( #39, #40 );
#23 =  ( GEOMETRIC_REPRESENTATION_CONTEXT( 3 )GLOBAL_UNCERTAINTY_ASSIGNED_CONTEXT( ( #43 ) )GLOBAL_UNIT_ASSIGNED_CONTEXT( ( #45, #46, #47 ) )REPRESENTATION_CONTEXT( 'NONE', 'WORKSPACE' ) );
#27 = APPLICATION_CONTEXT( 'configuration controlled 3D designs of mechanical parts and assemblies' );
#28 = PRODUCT_CATEGORY( 'part', 'NONE' );
#29 = PRODUCT_RELATED_PRODUCT_CATEGORY( 'detail', ' ', ( #38 ) );
#30 = CALENDAR_DATE( 2016, 16, 2 );
#31 = LOCAL_TIME( 11, 54, 38.0000000000000, #49 );
#32 = PERSON_AND_ORGANIZATION( #50, #51 );
#33 = APPROVAL( #52, 'SOLID MODEL' );
#34 = APPROVAL_ROLE( 'APPROVED' );
#35 = SECURITY_CLASSIFICATION( '', '', #53 );
#36 = PRODUCT_DEFINITION_FORMATION_WITH_SPECIFIED_SOURCE( ' ', 'NONE', #38, .NOT_KNOWN. );
#37 = PRODUCT_DEFINITION( 'NONE', 'NONE', #36, #1 );
#38 = PRODUCT( '_GR M3x6', '_GR M3x6', 'PART-_GR M3x6-DESC', ( #54 ) );
#39 = PRODUCT_DEFINITION_SHAPE( 'NONE', 'NONE', #37 );
#40 = ADVANCED_BREP_SHAPE_REPRESENTATION( '_GR M3x6', ( #55, #56 ), #23 );
#43 = UNCERTAINTY_MEASURE_WITH_UNIT( LENGTH_MEASURE( 0.00100000000000000 ), #45, '', '' );
#45 =  ( CONVERSION_BASED_UNIT( 'MILLIMETRE', #59 )LENGTH_UNIT(  )NAMED_UNIT( #62 ) );
#46 =  ( NAMED_UNIT( #64 )PLANE_ANGLE_UNIT(  )SI_UNIT( $, .RADIAN. ) );
#47 =  ( NAMED_UNIT( #64 )SI_UNIT( $, .STERADIAN. )SOLID_ANGLE_UNIT(  ) );
#49 = COORDINATED_UNIVERSAL_TIME_OFFSET( 1, 0, .AHEAD. );
#50 = PERSON( '', 'UNSPECIFIED', $, $, $, $ );
#51 = ORGANIZATION( 'UNSPECIFIED', 'UNSPECIFIED', 'UNSPECIFIED' );
#52 = APPROVAL_STATUS( 'approved' );
#53 = SECURITY_CLASSIFICATION_LEVEL( 'unclassified' );
#54 = MECHANICAL_CONTEXT( '', #27, 'mechanical' );
#55 = MANIFOLD_SOLID_BREP( '_GR M3x6', #70 );
#56 = AXIS2_PLACEMENT_3D( '', #71, #72, #73 );
#59 = LENGTH_MEASURE_WITH_UNIT( LENGTH_MEASURE( 1.00000000000000 ), #74 );
#62 = DIMENSIONAL_EXPONENTS( 1.00000000000000, 0.000000000000000, 0.000000000000000, 0.000000000000000, 0.000000000000000, 0.000000000000000, 0.000000000000000 );
#64 = DIMENSIONAL_EXPONENTS( 0.000000000000000, 0.000000000000000, 0.000000000000000, 0.000000000000000, 0.000000000000000, 0.000000000000000, 0.000000000000000 );
#70 = CLOSED_SHELL( '', ( #75, #76, #77, #78, #79, #80, #81, #82, #83, #84, #85, #86 ) );
#71 = CARTESIAN_POINT( '', ( 0.000000000000000, 0.000000000000000, 0.000000000000000 ) );
#72 = DIRECTION( '', ( 0.000000000000000, 0.000000000000000, 1.00000000000000 ) );
#73 = DIRECTION( '', ( 1.00000000000000, 0.000000000000000, 0.000000000000000 ) );
#74 =  ( LENGTH_UNIT(  )NAMED_UNIT( #62 )SI_UNIT( .MILLI., .METRE. ) );
#75 = ADVANCED_FACE( '', ( #88, #89 ), #90, .T. );
#76 = ADVANCED_FACE( '', ( #91, #92 ), #93, .F. );
#77 = ADVANCED_FACE( '', ( #94 ), #95, .T. );
#78 = ADVANCED_FACE( '', ( #96 ), #97, .T. );
#79 = ADVANCED_FACE( '', ( #98 ), #99, .T. );
#80 = ADVANCED_FACE( '', ( #100 ), #101, .F. );
#81 = ADVANCED_FACE( '', ( #102, #103 ), #104, .T. );
#82 = ADVANCED_FACE( '', ( #105, #106 ), #107, .T. );
#83 = ADVANCED_FACE( '', ( #108 ), #109, .T. );
#84 = ADVANCED_FACE( '', ( #110 ), #111, .T. );
#85 = ADVANCED_FACE( '', ( #112 ), #113, .T. );
#86 = ADVANCED_FACE( '', ( #114 ), #115, .F. );
#88 = FACE_OUTER_BOUND( '', #116, .T. );
#89 = FACE_BOUND( '', #117, .T. );
#90 = CONICAL_SURFACE( '', #118, 1.19350000000000, 0.785398163397448 );
#91 = FACE_OUTER_BOUND( '', #119, .T. );
#92 = FACE_BOUND( '', #120, .T. );
#93 = PLANE( '', #121 );
#94 = FACE_OUTER_BOUND( '', #122, .T. );
#95 = PLANE( '', #123 );
#96 = FACE_OUTER_BOUND( '', #124, .T. );
#97 = PLANE( '', #125 );
#98 = FACE_OUTER_BOUND( '', #126, .T. );
#99 = PLANE( '', #127 );
#100 = FACE_OUTER_BOUND( '', #128, .T. );
#101 = PLANE( '', #129 );
#102 = FACE_BOUND( '', #130, .T. );
#103 = FACE_OUTER_BOUND( '', #131, .T. );
#104 = CONICAL_SURFACE( '', #132, 1.50000000000000, 0.785398163397449 );
#105 = FACE_OUTER_BOUND( '', #133, .T. );
#106 = FACE_OUTER_BOUND( '', #134, .T. );
#107 = CYLINDRICAL_SURFACE( '', #135, 1.50000000000000 );
#108 = FACE_OUTER_BOUND( '', #136, .T. );
#109 = PLANE( '', #137 );
#110 = FACE_OUTER_BOUND( '', #138, .T. );
#111 = PLANE( '', #139 );
#112 = FACE_OUTER_BOUND( '', #140, .T. );
#113 = PLANE( '', #141 );
#114 = FACE_OUTER_BOUND( '', #142, .T. );
#115 = PLANE( '', #143 );
#116 = EDGE_LOOP( '', ( #144 ) );
#117 = EDGE_LOOP( '', ( #145 ) );
#118 = AXIS2_PLACEMENT_3D( '', #146, #147, #148 );
#119 = EDGE_LOOP( '', ( #149 ) );
#120 = EDGE_LOOP( '', ( #150, #151, #152, #153, #154, #155 ) );
#121 = AXIS2_PLACEMENT_3D( '', #156, #157, #158 );
#122 = EDGE_LOOP( '', ( #159, #160, #161, #162 ) );
#123 = AXIS2_PLACEMENT_3D( '', #163, #164, #165 );
#124 = EDGE_LOOP( '', ( #166, #167, #168, #169 ) );
#125 = AXIS2_PLACEMENT_3D( '', #170, #171, #172 );
#126 = EDGE_LOOP( '', ( #173, #174, #175, #176 ) );
#127 = AXIS2_PLACEMENT_3D( '', #177, #178, #179 );
#128 = EDGE_LOOP( '', ( #180 ) );
#129 = AXIS2_PLACEMENT_3D( '', #181, #182, #183 );
#130 = EDGE_LOOP( '', ( #184 ) );
#131 = EDGE_LOOP( '', ( #185 ) );
#132 = AXIS2_PLACEMENT_3D( '', #186, #187, #188 );
#133 = EDGE_LOOP( '', ( #189 ) );
#134 = EDGE_LOOP( '', ( #190 ) );
#135 = AXIS2_PLACEMENT_3D( '', #191, #192, #193 );
#136 = EDGE_LOOP( '', ( #194, #195, #196, #197 ) );
#137 = AXIS2_PLACEMENT_3D( '', #198, #199, #200 );
#138 = EDGE_LOOP( '', ( #201, #202, #203, #204 ) );
#139 = AXIS2_PLACEMENT_3D( '', #205, #206, #207 );
#140 = EDGE_LOOP( '', ( #208, #209, #210, #211 ) );
#141 = AXIS2_PLACEMENT_3D( '', #212, #213, #214 );
#142 = EDGE_LOOP( '', ( #215, #216, #217, #218, #219, #220 ) );
#143 = AXIS2_PLACEMENT_3D( '', #221, #222, #223 );
#144 = ORIENTED_EDGE( '', *, *, #224, .F. );
#145 = ORIENTED_EDGE( '', *, *, #225, .T. );
#146 = CARTESIAN_POINT( '', ( 0.000000000000000, 0.000000000000000, 0.000000000000000 ) );
#147 = DIRECTION( '', ( 1.00000000000000, -0.000000000000000, -0.000000000000000 ) );
#148 = DIRECTION( '', ( -0.000000000000000, 0.000000000000000, -1.00000000000000 ) );
#149 = ORIENTED_EDGE( '', *, *, #225, .F. );
#150 = ORIENTED_EDGE( '', *, *, #226, .T. );
#151 = ORIENTED_EDGE( '', *, *, #227, .T. );
#152 = ORIENTED_EDGE( '', *, *, #228, .T. );
#153 = ORIENTED_EDGE( '', *, *, #229, .T. );
#154 = ORIENTED_EDGE( '', *, *, #230, .T. );
#155 = ORIENTED_EDGE( '', *, *, #231, .T. );
#156 = CARTESIAN_POINT( '', ( 0.000000000000000, 0.000000000000000, 0.000000000000000 ) );
#157 = DIRECTION( '', ( 1.00000000000000, 0.000000000000000, -0.000000000000000 ) );
#158 = DIRECTION( '', ( -0.000000000000000, 0.000000000000000, -1.00000000000000 ) );
#159 = ORIENTED_EDGE( '', *, *, #227, .F. );
#160 = ORIENTED_EDGE( '', *, *, #232, .F. );
#161 = ORIENTED_EDGE( '', *, *, #233, .T. );
#162 = ORIENTED_EDGE( '', *, *, #234, .T. );
#163 = CARTESIAN_POINT( '', ( 0.500000000000000, -0.433012701892219, 0.750000000000000 ) );
#164 = DIRECTION( '', ( 0.000000000000000, 0.866025403784439, -0.500000000000000 ) );
#165 = DIRECTION( '', ( 0.000000000000000, 0.500000000000000, 0.866025403784439 ) );
#166 = ORIENTED_EDGE( '', *, *, #228, .F. );
#167 = ORIENTED_EDGE( '', *, *, #234, .F. );
#168 = ORIENTED_EDGE( '', *, *, #235, .T. );
#169 = ORIENTED_EDGE( '', *, *, #236, .T. );
#170 = CARTESIAN_POINT( '', ( 0.500000000000000, -0.866025403784439, 0.000000000000000 ) );
#171 = DIRECTION( '', ( -0.000000000000000, 0.866025403784439, 0.500000000000000 ) );
#172 = DIRECTION( '', ( 0.000000000000000, -0.500000000000000, 0.866025403784439 ) );
#173 = ORIENTED_EDGE( '', *, *, #226, .F. );
#174 = ORIENTED_EDGE( '', *, *, #237, .F. );
#175 = ORIENTED_EDGE( '', *, *, #238, .T. );
#176 = ORIENTED_EDGE( '', *, *, #232, .T. );
#177 = CARTESIAN_POINT( '', ( 0.500000000000000, 0.433012701892219, 0.750000000000000 ) );
#178 = DIRECTION( '', ( 0.000000000000000, 0.000000000000000, -1.00000000000000 ) );
#179 = DIRECTION( '', ( -1.00000000000000, 0.000000000000000, 0.000000000000000 ) );
#180 = ORIENTED_EDGE( '', *, *, #239, .T. );
#181 = CARTESIAN_POINT( '', ( 6.00000000000000, 1.19350000000000, 0.000000000000000 ) );
#182 = DIRECTION( '', ( -1.00000000000000, 0.000000000000000, 0.000000000000000 ) );
#183 = DIRECTION( '', ( 0.000000000000000, 0.000000000000000, 1.00000000000000 ) );
#184 = ORIENTED_EDGE( '', *, *, #239, .F. );
#185 = ORIENTED_EDGE( '', *, *, #240, .T. );
#186 = CARTESIAN_POINT( '', ( 5.69350000000000, 0.000000000000000, 0.000000000000000 ) );
#187 = DIRECTION( '', ( -1.00000000000000, 0.000000000000000, -0.000000000000000 ) );
#188 = DIRECTION( '', ( 0.000000000000000, 0.000000000000000, 1.00000000000000 ) );
#189 = ORIENTED_EDGE( '', *, *, #240, .F. );
#190 = ORIENTED_EDGE( '', *, *, #224, .T. );
#191 = CARTESIAN_POINT( '', ( 6.00000000000000, 0.000000000000000, 0.000000000000000 ) );
#192 = DIRECTION( '', ( -1.00000000000000, -0.000000000000000, 0.000000000000000 ) );
#193 = DIRECTION( '', ( -0.000000000000000, 0.000000000000000, -1.00000000000000 ) );
#194 = ORIENTED_EDGE( '', *, *, #229, .F. );
#195 = ORIENTED_EDGE( '', *, *, #236, .F. );
#196 = ORIENTED_EDGE( '', *, *, #241, .T. );
#197 = ORIENTED_EDGE( '', *, *, #242, .T. );
#198 = CARTESIAN_POINT( '', ( 0.500000000000000, -0.433012701892219, -0.750000000000000 ) );
#199 = DIRECTION( '', ( 0.000000000000000, 0.000000000000000, 1.00000000000000 ) );
#200 = DIRECTION( '', ( 1.00000000000000, 0.000000000000000, -0.000000000000000 ) );
#201 = ORIENTED_EDGE( '', *, *, #230, .F. );
#202 = ORIENTED_EDGE( '', *, *, #242, .F. );
#203 = ORIENTED_EDGE( '', *, *, #243, .T. );
#204 = ORIENTED_EDGE( '', *, *, #244, .T. );
#205 = CARTESIAN_POINT( '', ( 0.500000000000000, 0.433012701892219, -0.750000000000000 ) );
#206 = DIRECTION( '', ( 0.000000000000000, -0.866025403784439, 0.500000000000000 ) );
#207 = DIRECTION( '', ( 0.000000000000000, -0.500000000000000, -0.866025403784439 ) );
#208 = ORIENTED_EDGE( '', *, *, #231, .F. );
#209 = ORIENTED_EDGE( '', *, *, #244, .F. );
#210 = ORIENTED_EDGE( '', *, *, #245, .T. );
#211 = ORIENTED_EDGE( '', *, *, #237, .T. );
#212 = CARTESIAN_POINT( '', ( 0.500000000000000, 0.866025403784439, 0.000000000000000 ) );
#213 = DIRECTION( '', ( 0.000000000000000, -0.866025403784439, -0.500000000000000 ) );
#214 = DIRECTION( '', ( 0.000000000000000, 0.500000000000000, -0.866025403784439 ) );
#215 = ORIENTED_EDGE( '', *, *, #238, .F. );
#216 = ORIENTED_EDGE( '', *, *, #245, .F. );
#217 = ORIENTED_EDGE( '', *, *, #243, .F. );
#218 = ORIENTED_EDGE( '', *, *, #241, .F. );
#219 = ORIENTED_EDGE( '', *, *, #235, .F. );
#220 = ORIENTED_EDGE( '', *, *, #233, .F. );
#221 = CARTESIAN_POINT( '', ( 0.500000000000000, 0.000000000000000, 0.000000000000000 ) );
#222 = DIRECTION( '', ( 1.00000000000000, 0.000000000000000, 0.000000000000000 ) );
#223 = DIRECTION( '', ( 0.000000000000000, 0.000000000000000, -1.00000000000000 ) );
#224 = EDGE_CURVE( '', #246, #246, #247, .T. );
#225 = EDGE_CURVE( '', #248, #248, #249, .T. );
#226 = EDGE_CURVE( '', #250, #251, #252, .T. );
#227 = EDGE_CURVE( '', #251, #253, #254, .T. );
#228 = EDGE_CURVE( '', #253, #255, #256, .T. );
#229 = EDGE_CURVE( '', #255, #257, #258, .T. );
#230 = EDGE_CURVE( '', #257, #259, #260, .T. );
#231 = EDGE_CURVE( '', #259, #250, #261, .T. );
#232 = EDGE_CURVE( '', #262, #251, #263, .T. );
#233 = EDGE_CURVE( '', #262, #264, #265, .T. );
#234 = EDGE_CURVE( '', #264, #253, #266, .T. );
#235 = EDGE_CURVE( '', #264, #267, #268, .T. );
#236 = EDGE_CURVE( '', #267, #255, #269, .T. );
#237 = EDGE_CURVE( '', #270, #250, #271, .T. );
#238 = EDGE_CURVE( '', #270, #262, #272, .T. );
#239 = EDGE_CURVE( '', #273, #273, #274, .T. );
#240 = EDGE_CURVE( '', #275, #275, #276, .T. );
#241 = EDGE_CURVE( '', #267, #277, #278, .T. );
#242 = EDGE_CURVE( '', #277, #257, #279, .T. );
#243 = EDGE_CURVE( '', #277, #280, #281, .T. );
#244 = EDGE_CURVE( '', #280, #259, #282, .T. );
#245 = EDGE_CURVE( '', #280, #270, #283, .T. );
#246 = VERTEX_POINT( '', #284 );
#247 = CIRCLE( '', #285, 1.50000000000000 );
#248 = VERTEX_POINT( '', #286 );
#249 = CIRCLE( '', #287, 1.19350000000000 );
#250 = VERTEX_POINT( '', #288 );
#251 = VERTEX_POINT( '', #289 );
#252 = LINE( '', #290, #291 );
#253 = VERTEX_POINT( '', #292 );
#254 = LINE( '', #293, #294 );
#255 = VERTEX_POINT( '', #295 );
#256 = LINE( '', #296, #297 );
#257 = VERTEX_POINT( '', #298 );
#258 = LINE( '', #299, #300 );
#259 = VERTEX_POINT( '', #301 );
#260 = LINE( '', #302, #303 );
#261 = LINE( '', #304, #305 );
#262 = VERTEX_POINT( '', #306 );
#263 = LINE( '', #307, #308 );
#264 = VERTEX_POINT( '', #309 );
#265 = LINE( '', #310, #311 );
#266 = LINE( '', #312, #313 );
#267 = VERTEX_POINT( '', #314 );
#268 = LINE( '', #315, #316 );
#269 = LINE( '', #317, #318 );
#270 = VERTEX_POINT( '', #319 );
#271 = LINE( '', #320, #321 );
#272 = LINE( '', #322, #323 );
#273 = VERTEX_POINT( '', #324 );
#274 = CIRCLE( '', #325, 1.19350000000000 );
#275 = VERTEX_POINT( '', #326 );
#276 = CIRCLE( '', #327, 1.50000000000000 );
#277 = VERTEX_POINT( '', #328 );
#278 = LINE( '', #329, #330 );
#279 = LINE( '', #331, #332 );
#280 = VERTEX_POINT( '', #333 );
#281 = LINE( '', #334, #335 );
#282 = LINE( '', #336, #337 );
#283 = LINE( '', #338, #339 );
#284 = CARTESIAN_POINT( '', ( 0.306500000000000, 0.000000000000000, -1.50000000000000 ) );
#285 = AXIS2_PLACEMENT_3D( '', #340, #341, #342 );
#286 = CARTESIAN_POINT( '', ( 0.000000000000000, 0.000000000000000, -1.19350000000000 ) );
#287 = AXIS2_PLACEMENT_3D( '', #343, #344, #345 );
#288 = CARTESIAN_POINT( '', ( 0.000000000000000, 0.433012701892219, 0.750000000000000 ) );
#289 = CARTESIAN_POINT( '', ( 0.000000000000000, -0.433012701892219, 0.750000000000000 ) );
#290 = CARTESIAN_POINT( '', ( 0.000000000000000, 0.433012701892219, 0.750000000000000 ) );
#291 = VECTOR( '', #346, 1000.00000000000 );
#292 = CARTESIAN_POINT( '', ( 0.000000000000000, -0.866025403784439, 0.000000000000000 ) );
#293 = CARTESIAN_POINT( '', ( 0.000000000000000, -0.433012701892219, 0.750000000000000 ) );
#294 = VECTOR( '', #347, 1000.00000000000 );
#295 = CARTESIAN_POINT( '', ( 0.000000000000000, -0.433012701892219, -0.750000000000000 ) );
#296 = CARTESIAN_POINT( '', ( 0.000000000000000, -0.866025403784439, 0.000000000000000 ) );
#297 = VECTOR( '', #348, 1000.00000000000 );
#298 = CARTESIAN_POINT( '', ( 0.000000000000000, 0.433012701892219, -0.750000000000000 ) );
#299 = CARTESIAN_POINT( '', ( 0.000000000000000, -0.433012701892219, -0.750000000000000 ) );
#300 = VECTOR( '', #349, 1000.00000000000 );
#301 = CARTESIAN_POINT( '', ( 0.000000000000000, 0.866025403784439, 0.000000000000000 ) );
#302 = CARTESIAN_POINT( '', ( 0.000000000000000, 0.433012701892219, -0.750000000000000 ) );
#303 = VECTOR( '', #350, 1000.00000000000 );
#304 = CARTESIAN_POINT( '', ( 0.000000000000000, 0.866025403784439, 0.000000000000000 ) );
#305 = VECTOR( '', #351, 1000.00000000000 );
#306 = CARTESIAN_POINT( '', ( 0.500000000000000, -0.433012701892219, 0.750000000000000 ) );
#307 = CARTESIAN_POINT( '', ( 0.500000000000000, -0.433012701892219, 0.750000000000000 ) );
#308 = VECTOR( '', #352, 1000.00000000000 );
#309 = CARTESIAN_POINT( '', ( 0.500000000000000, -0.866025403784439, 0.000000000000000 ) );
#310 = CARTESIAN_POINT( '', ( 0.500000000000000, -0.433012701892219, 0.750000000000000 ) );
#311 = VECTOR( '', #353, 1000.00000000000 );
#312 = CARTESIAN_POINT( '', ( 0.500000000000000, -0.866025403784439, 0.000000000000000 ) );
#313 = VECTOR( '', #354, 1000.00000000000 );
#314 = CARTESIAN_POINT( '', ( 0.500000000000000, -0.433012701892219, -0.750000000000000 ) );
#315 = CARTESIAN_POINT( '', ( 0.500000000000000, -0.866025403784439, 0.000000000000000 ) );
#316 = VECTOR( '', #355, 1000.00000000000 );
#317 = CARTESIAN_POINT( '', ( 0.500000000000000, -0.433012701892219, -0.750000000000000 ) );
#318 = VECTOR( '', #356, 1000.00000000000 );
#319 = CARTESIAN_POINT( '', ( 0.500000000000000, 0.433012701892219, 0.750000000000000 ) );
#320 = CARTESIAN_POINT( '', ( 0.500000000000000, 0.433012701892219, 0.750000000000000 ) );
#321 = VECTOR( '', #357, 1000.00000000000 );
#322 = CARTESIAN_POINT( '', ( 0.500000000000000, 0.433012701892219, 0.750000000000000 ) );
#323 = VECTOR( '', #358, 1000.00000000000 );
#324 = CARTESIAN_POINT( '', ( 6.00000000000000, 0.000000000000000, -1.19350000000000 ) );
#325 = AXIS2_PLACEMENT_3D( '', #359, #360, #361 );
#326 = CARTESIAN_POINT( '', ( 5.69350000000000, 0.000000000000000, -1.50000000000000 ) );
#327 = AXIS2_PLACEMENT_3D( '', #362, #363, #364 );
#328 = CARTESIAN_POINT( '', ( 0.500000000000000, 0.433012701892219, -0.750000000000000 ) );
#329 = CARTESIAN_POINT( '', ( 0.500000000000000, -0.433012701892219, -0.750000000000000 ) );
#330 = VECTOR( '', #365, 1000.00000000000 );
#331 = CARTESIAN_POINT( '', ( 0.500000000000000, 0.433012701892219, -0.750000000000000 ) );
#332 = VECTOR( '', #366, 1000.00000000000 );
#333 = CARTESIAN_POINT( '', ( 0.500000000000000, 0.866025403784439, 0.000000000000000 ) );
#334 = CARTESIAN_POINT( '', ( 0.500000000000000, 0.433012701892219, -0.750000000000000 ) );
#335 = VECTOR( '', #367, 1000.00000000000 );
#336 = CARTESIAN_POINT( '', ( 0.500000000000000, 0.866025403784439, 0.000000000000000 ) );
#337 = VECTOR( '', #368, 1000.00000000000 );
#338 = CARTESIAN_POINT( '', ( 0.500000000000000, 0.866025403784439, 0.000000000000000 ) );
#339 = VECTOR( '', #369, 1000.00000000000 );
#340 = CARTESIAN_POINT( '', ( 0.306500000000000, 0.000000000000000, 0.000000000000000 ) );
#341 = DIRECTION( '', ( 1.00000000000000, 0.000000000000000, -0.000000000000000 ) );
#342 = DIRECTION( '', ( -0.000000000000000, 0.000000000000000, -1.00000000000000 ) );
#343 = CARTESIAN_POINT( '', ( 0.000000000000000, 0.000000000000000, 0.000000000000000 ) );
#344 = DIRECTION( '', ( 1.00000000000000, 0.000000000000000, -0.000000000000000 ) );
#345 = DIRECTION( '', ( -0.000000000000000, 0.000000000000000, -1.00000000000000 ) );
#346 = DIRECTION( '', ( 0.000000000000000, -1.00000000000000, 0.000000000000000 ) );
#347 = DIRECTION( '', ( 0.000000000000000, -0.500000000000000, -0.866025403784439 ) );
#348 = DIRECTION( '', ( 0.000000000000000, 0.500000000000000, -0.866025403784439 ) );
#349 = DIRECTION( '', ( 0.000000000000000, 1.00000000000000, 0.000000000000000 ) );
#350 = DIRECTION( '', ( 0.000000000000000, 0.500000000000000, 0.866025403784439 ) );
#351 = DIRECTION( '', ( 0.000000000000000, -0.500000000000000, 0.866025403784439 ) );
#352 = DIRECTION( '', ( -1.00000000000000, -0.000000000000000, -0.000000000000000 ) );
#353 = DIRECTION( '', ( 0.000000000000000, -0.500000000000000, -0.866025403784439 ) );
#354 = DIRECTION( '', ( -1.00000000000000, -0.000000000000000, -0.000000000000000 ) );
#355 = DIRECTION( '', ( 0.000000000000000, 0.500000000000000, -0.866025403784439 ) );
#356 = DIRECTION( '', ( -1.00000000000000, -0.000000000000000, -0.000000000000000 ) );
#357 = DIRECTION( '', ( -1.00000000000000, -0.000000000000000, -0.000000000000000 ) );
#358 = DIRECTION( '', ( 0.000000000000000, -1.00000000000000, 0.000000000000000 ) );
#359 = CARTESIAN_POINT( '', ( 6.00000000000000, 0.000000000000000, 0.000000000000000 ) );
#360 = DIRECTION( '', ( 1.00000000000000, 0.000000000000000, -0.000000000000000 ) );
#361 = DIRECTION( '', ( -0.000000000000000, 0.000000000000000, -1.00000000000000 ) );
#362 = CARTESIAN_POINT( '', ( 5.69350000000000, 0.000000000000000, 0.000000000000000 ) );
#363 = DIRECTION( '', ( 1.00000000000000, 0.000000000000000, -0.000000000000000 ) );
#364 = DIRECTION( '', ( -0.000000000000000, 0.000000000000000, -1.00000000000000 ) );
#365 = DIRECTION( '', ( 0.000000000000000, 1.00000000000000, 0.000000000000000 ) );
#366 = DIRECTION( '', ( -1.00000000000000, -0.000000000000000, -0.000000000000000 ) );
#367 = DIRECTION( '', ( 0.000000000000000, 0.500000000000000, 0.866025403784439 ) );
#368 = DIRECTION( '', ( -1.00000000000000, -0.000000000000000, -0.000000000000000 ) );
#369 = DIRECTION( '', ( 0.000000000000000, -0.500000000000000, 0.866025403784439 ) );
ENDSEC;
END-ISO-10303-21;
