ISO-10303-21;
HEADER;
FILE_DESCRIPTION(('no description'),'unknown implementation level');
FILE_NAME('E_2072_15_4.stp','  ',('Meusburger Georg GmbH & Co KG'),('CADClick - KiM GmbH - www.kimweb.de'),'unknown preprocess','ACIS','unknown authorization');
FILE_SCHEMA(('automotive_design'));
ENDSEC;
DATA;
#1=MECHANICAL_DESIGN_GEOMETRIC_PRESENTATION_REPRESENTATION(' ',(#10,#11,#12,#13,#14,#15,#16,#17,#18,#19,#20,#21,#22,#23,#24),#6);
#2=PRODUCT_DEFINITION_CONTEXT('',#25,'design');
#3=APPLICATION_PROTOCOL_DEFINITION('INTERNATIONAL STANDARD','automotive_design',1994,#25);
#4=PRODUCT_CATEGORY_RELATIONSHIP('NONE','NONE',#26,#27);
#5=SHAPE_DEFINITION_REPRESENTATION(#28,#29);
#6= (GEOMETRIC_REPRESENTATION_CONTEXT(3)GLOBAL_UNCERTAINTY_ASSIGNED_CONTEXT((#32))GLOBAL_UNIT_ASSIGNED_CONTEXT((#34,#35,#36))REPRESENTATION_CONTEXT('NONE','WORKSPACE'));
#10=STYLED_ITEM('',(#38),#39);
#11=STYLED_ITEM('',(#40),#41);
#12=STYLED_ITEM('',(#42),#43);
#13=STYLED_ITEM('',(#44),#45);
#14=STYLED_ITEM('',(#46),#47);
#15=STYLED_ITEM('',(#48),#49);
#16=STYLED_ITEM('',(#50),#51);
#17=STYLED_ITEM('',(#52),#53);
#18=STYLED_ITEM('',(#54),#55);
#19=STYLED_ITEM('',(#56),#57);
#20=STYLED_ITEM('',(#58),#59);
#21=STYLED_ITEM('',(#60),#61);
#22=STYLED_ITEM('',(#62),#63);
#23=STYLED_ITEM('',(#64),#65);
#24=STYLED_ITEM('',(#66),#67);
#25=APPLICATION_CONTEXT(' ');
#26=PRODUCT_CATEGORY('part','NONE');
#27=PRODUCT_RELATED_PRODUCT_CATEGORY('detail',' ',(#68));
#28=PRODUCT_DEFINITION_SHAPE('NONE','NONE',#69);
#29=ADVANCED_BREP_SHAPE_REPRESENTATION('E 2072_15',(#61,#70),#6);
#32=UNCERTAINTY_MEASURE_WITH_UNIT(LENGTH_MEASURE(1.0E-006),#34,'','');
#34= (CONVERSION_BASED_UNIT('MILLIMETRE',#73)LENGTH_UNIT()NAMED_UNIT(#76));
#35= (NAMED_UNIT(#78)PLANE_ANGLE_UNIT()SI_UNIT($,.RADIAN.));
#36= (NAMED_UNIT(#78)SOLID_ANGLE_UNIT()SI_UNIT($,.STERADIAN.));
#38=PRESENTATION_STYLE_ASSIGNMENT((#84));
#39=EDGE_CURVE('',#51,#41,#85,.T.);
#40=PRESENTATION_STYLE_ASSIGNMENT((#86));
#41=VERTEX_POINT('',#87);
#42=PRESENTATION_STYLE_ASSIGNMENT((#88));
#43=EDGE_CURVE('',#41,#47,#89,.T.);
#44=PRESENTATION_STYLE_ASSIGNMENT((#90));
#45=ADVANCED_FACE('',(#91),#92,.T.);
#46=PRESENTATION_STYLE_ASSIGNMENT((#93));
#47=VERTEX_POINT('',#94);
#48=PRESENTATION_STYLE_ASSIGNMENT((#95));
#49=ADVANCED_FACE('',(#96),#97,.T.);
#50=PRESENTATION_STYLE_ASSIGNMENT((#98));
#51=VERTEX_POINT('',#99);
#52=PRESENTATION_STYLE_ASSIGNMENT((#100));
#53=EDGE_CURVE('',#41,#51,#101,.T.);
#54=PRESENTATION_STYLE_ASSIGNMENT((#102));
#55=VERTEX_POINT('',#103);
#56=PRESENTATION_STYLE_ASSIGNMENT((#104));
#57=EDGE_CURVE('',#47,#55,#105,.T.);
#58=PRESENTATION_STYLE_ASSIGNMENT((#106));
#59=ADVANCED_FACE('',(#107),#108,.T.);
#60=PRESENTATION_STYLE_ASSIGNMENT((#109));
#61=MANIFOLD_SOLID_BREP('E 2072_15',#110);
#62=PRESENTATION_STYLE_ASSIGNMENT((#111));
#63=EDGE_CURVE('',#55,#51,#112,.T.);
#64=PRESENTATION_STYLE_ASSIGNMENT((#113));
#65=EDGE_CURVE('',#55,#47,#114,.T.);
#66=PRESENTATION_STYLE_ASSIGNMENT((#115));
#67=ADVANCED_FACE('',(#116),#117,.T.);
#68=PRODUCT('E 2072_15','E 2072_15','PART-E 2072_15-DESC',(#118));
#69=PRODUCT_DEFINITION('NONE','NONE',#119,#2);
#70=AXIS2_PLACEMENT_3D('',#120,#121,#122);
#73=LENGTH_MEASURE_WITH_UNIT(LENGTH_MEASURE(1.0),#123);
#76=DIMENSIONAL_EXPONENTS(1.0,0.0,0.0,0.0,0.0,0.0,0.0);
#78=DIMENSIONAL_EXPONENTS(0.0,0.0,0.0,0.0,0.0,0.0,0.0);
#84=CURVE_STYLE('',#124,POSITIVE_LENGTH_MEASURE(1.0E-006),#125);
#85=CIRCLE('',#126,7.5);
#86=POINT_STYLE(' ',#127,POSITIVE_LENGTH_MEASURE(1.0E-006),#128);
#87=CARTESIAN_POINT('',(-7.5,9.18454765366783E-016,2.0));
#88=CURVE_STYLE('',#129,POSITIVE_LENGTH_MEASURE(1.0E-006),#130);
#89=LINE('',#131,#132);
#90=SURFACE_STYLE_USAGE(.BOTH.,#133);
#91=FACE_OUTER_BOUND('',#134,.T.);
#92=CYLINDRICAL_SURFACE('',#135,7.5);
#93=POINT_STYLE(' ',#136,POSITIVE_LENGTH_MEASURE(1.0E-006),#137);
#94=CARTESIAN_POINT('',(-7.5,9.18454765366783E-016,0.0));
#95=SURFACE_STYLE_USAGE(.BOTH.,#138);
#96=FACE_OUTER_BOUND('',#139,.T.);
#97=PLANE('',#140);
#98=POINT_STYLE(' ',#141,POSITIVE_LENGTH_MEASURE(1.0E-006),#142);
#99=CARTESIAN_POINT('',(7.5,0.0,2.0));
#100=CURVE_STYLE('',#143,POSITIVE_LENGTH_MEASURE(1.0E-006),#144);
#101=CIRCLE('',#145,7.5);
#102=POINT_STYLE(' ',#146,POSITIVE_LENGTH_MEASURE(1.0E-006),#147);
#103=CARTESIAN_POINT('',(7.5,0.0,0.0));
#104=CURVE_STYLE('',#148,POSITIVE_LENGTH_MEASURE(1.0E-006),#149);
#105=CIRCLE('',#150,7.5);
#106=SURFACE_STYLE_USAGE(.BOTH.,#151);
#107=FACE_OUTER_BOUND('',#152,.T.);
#108=PLANE('',#153);
#109=SURFACE_STYLE_USAGE(.BOTH.,#154);
#110=CLOSED_SHELL('',(#45,#67,#59,#49));
#111=CURVE_STYLE('',#155,POSITIVE_LENGTH_MEASURE(1.0E-006),#156);
#112=LINE('',#157,#158);
#113=CURVE_STYLE('',#159,POSITIVE_LENGTH_MEASURE(1.0E-006),#160);
#114=CIRCLE('',#161,7.5);
#115=SURFACE_STYLE_USAGE(.BOTH.,#162);
#116=FACE_OUTER_BOUND('',#163,.T.);
#117=CYLINDRICAL_SURFACE('',#164,7.5);
#118=PRODUCT_CONTEXT('',#25,'mechanical');
#119=PRODUCT_DEFINITION_FORMATION_WITH_SPECIFIED_SOURCE(' ','NONE',#68,.NOT_KNOWN.);
#120=CARTESIAN_POINT('',(0.0,0.0,0.0));
#121=DIRECTION('',(0.0,0.0,1.0));
#122=DIRECTION('',(1.0,0.0,0.0));
#123= (NAMED_UNIT(#76)LENGTH_UNIT()SI_UNIT(.MILLI.,.METRE.));
#124=DRAUGHTING_PRE_DEFINED_CURVE_FONT('continuous');
#125=COLOUR_RGB('',0.890196084976196,0.61176472902298,0.356862753629684);
#126=AXIS2_PLACEMENT_3D('',#166,#167,#168);
#127=PRE_DEFINED_MARKER('');
#128=COLOUR_RGB('',0.890196084976196,0.61176472902298,0.356862753629684);
#129=DRAUGHTING_PRE_DEFINED_CURVE_FONT('continuous');
#130=COLOUR_RGB('',0.890196084976196,0.61176472902298,0.356862753629684);
#131=CARTESIAN_POINT('',(-7.5,9.18454765366783E-016,1.0));
#132=VECTOR('',#169,1.0);
#133=SURFACE_SIDE_STYLE('',(#170));
#134=EDGE_LOOP('',(#171,#172,#173,#174));
#135=AXIS2_PLACEMENT_3D('',#175,#176,#177);
#136=PRE_DEFINED_MARKER('');
#137=COLOUR_RGB('',0.890196084976196,0.61176472902298,0.356862753629684);
#138=SURFACE_SIDE_STYLE('',(#178));
#139=EDGE_LOOP('',(#179,#180));
#140=AXIS2_PLACEMENT_3D('',#181,#182,#183);
#141=PRE_DEFINED_MARKER('');
#142=COLOUR_RGB('',0.890196084976196,0.61176472902298,0.356862753629684);
#143=DRAUGHTING_PRE_DEFINED_CURVE_FONT('continuous');
#144=COLOUR_RGB('',0.890196084976196,0.61176472902298,0.356862753629684);
#145=AXIS2_PLACEMENT_3D('',#184,#185,#186);
#146=PRE_DEFINED_MARKER('');
#147=COLOUR_RGB('',0.890196084976196,0.61176472902298,0.356862753629684);
#148=DRAUGHTING_PRE_DEFINED_CURVE_FONT('continuous');
#149=COLOUR_RGB('',0.890196084976196,0.61176472902298,0.356862753629684);
#150=AXIS2_PLACEMENT_3D('',#187,#188,#189);
#151=SURFACE_SIDE_STYLE('',(#190));
#152=EDGE_LOOP('',(#191,#192));
#153=AXIS2_PLACEMENT_3D('',#193,#194,#195);
#154=SURFACE_SIDE_STYLE('',(#196));
#155=DRAUGHTING_PRE_DEFINED_CURVE_FONT('continuous');
#156=COLOUR_RGB('',0.890196084976196,0.61176472902298,0.356862753629684);
#157=CARTESIAN_POINT('',(7.5,-9.18454765366783E-016,1.0));
#158=VECTOR('',#197,1.0);
#159=DRAUGHTING_PRE_DEFINED_CURVE_FONT('continuous');
#160=COLOUR_RGB('',0.890196084976196,0.61176472902298,0.356862753629684);
#161=AXIS2_PLACEMENT_3D('',#198,#199,#200);
#162=SURFACE_SIDE_STYLE('',(#201));
#163=EDGE_LOOP('',(#202,#203,#204,#205));
#164=AXIS2_PLACEMENT_3D('',#206,#207,#208);
#166=CARTESIAN_POINT('',(0.0,0.0,2.0));
#167=DIRECTION('',(0.0,0.0,1.0));
#168=DIRECTION('',(1.0,0.0,0.0));
#169=DIRECTION('',(-0.0,-0.0,-1.0));
#170=SURFACE_STYLE_FILL_AREA(#209);
#171=ORIENTED_EDGE('',*,*,#63,.F.);
#172=ORIENTED_EDGE('',*,*,#57,.F.);
#173=ORIENTED_EDGE('',*,*,#43,.F.);
#174=ORIENTED_EDGE('',*,*,#39,.F.);
#175=CARTESIAN_POINT('',(0.0,0.0,1.0));
#176=DIRECTION('',(-0.0,-0.0,-1.0));
#177=DIRECTION('',(1.0,0.0,0.0));
#178=SURFACE_STYLE_FILL_AREA(#210);
#179=ORIENTED_EDGE('',*,*,#39,.T.);
#180=ORIENTED_EDGE('',*,*,#53,.T.);
#181=CARTESIAN_POINT('',(0.0,0.0,2.0));
#182=DIRECTION('',(0.0,0.0,1.0));
#183=DIRECTION('',(1.0,0.0,0.0));
#184=CARTESIAN_POINT('',(0.0,0.0,2.0));
#185=DIRECTION('',(0.0,0.0,1.0));
#186=DIRECTION('',(1.0,0.0,0.0));
#187=CARTESIAN_POINT('',(0.0,0.0,0.0));
#188=DIRECTION('',(0.0,0.0,-1.0));
#189=DIRECTION('',(1.0,0.0,0.0));
#190=SURFACE_STYLE_FILL_AREA(#211);
#191=ORIENTED_EDGE('',*,*,#65,.T.);
#192=ORIENTED_EDGE('',*,*,#57,.T.);
#193=CARTESIAN_POINT('',(0.0,0.0,0.0));
#194=DIRECTION('',(0.0,0.0,-1.0));
#195=DIRECTION('',(-1.0,0.0,0.0));
#196=SURFACE_STYLE_FILL_AREA(#212);
#197=DIRECTION('',(0.0,0.0,1.0));
#198=CARTESIAN_POINT('',(0.0,0.0,0.0));
#199=DIRECTION('',(0.0,0.0,-1.0));
#200=DIRECTION('',(1.0,0.0,0.0));
#201=SURFACE_STYLE_FILL_AREA(#213);
#202=ORIENTED_EDGE('',*,*,#63,.T.);
#203=ORIENTED_EDGE('',*,*,#53,.F.);
#204=ORIENTED_EDGE('',*,*,#43,.T.);
#205=ORIENTED_EDGE('',*,*,#65,.F.);
#206=CARTESIAN_POINT('',(0.0,0.0,1.0));
#207=DIRECTION('',(-0.0,-0.0,-1.0));
#208=DIRECTION('',(1.0,0.0,0.0));
#209=FILL_AREA_STYLE('',(#214));
#210=FILL_AREA_STYLE('',(#215));
#211=FILL_AREA_STYLE('',(#216));
#212=FILL_AREA_STYLE('',(#217));
#213=FILL_AREA_STYLE('',(#218));
#214=FILL_AREA_STYLE_COLOUR('',#219);
#215=FILL_AREA_STYLE_COLOUR('',#220);
#216=FILL_AREA_STYLE_COLOUR('',#221);
#217=FILL_AREA_STYLE_COLOUR('',#222);
#218=FILL_AREA_STYLE_COLOUR('',#223);
#219=COLOUR_RGB('',0.890196084976196,0.61176472902298,0.356862753629684);
#220=COLOUR_RGB('',0.890196084976196,0.61176472902298,0.356862753629684);
#221=COLOUR_RGB('',0.890196084976196,0.61176472902298,0.356862753629684);
#222=COLOUR_RGB('',0.890196084976196,0.61176472902298,0.356862753629684);
#223=COLOUR_RGB('',0.890196084976196,0.61176472902298,0.356862753629684);
ENDSEC;
END-ISO-10303-21;
