ISO-10303-21;
HEADER;
FILE_DESCRIPTION(('no description'),'unknown implementation level');
FILE_NAME('E_2072_18_6.stp','  ',('Meusburger Georg GmbH & Co KG'),('CADClick - KiM GmbH - www.kimweb.de'),'unknown preprocess','ACIS','unknown authorization');
FILE_SCHEMA(('automotive_design'));
ENDSEC;
DATA;
#1=MECHANICAL_DESIGN_GEOMETRIC_PRESENTATION_REPRESENTATION(' ',(#10,#11,#12,#13,#14,#15,#16,#17,#18,#19,#20,#21,#22,#23,#24),#6);
#2=PRODUCT_DEFINITION_CONTEXT('',#25,'design');
#3=APPLICATION_PROTOCOL_DEFINITION('INTERNATIONAL STANDARD','automotive_design',1994,#25);
#4=PRODUCT_CATEGORY_RELATIONSHIP('NONE','NONE',#26,#27);
#5=SHAPE_DEFINITION_REPRESENTATION(#28,#29);
#6= (GEOMETRIC_REPRESENTATION_CONTEXT(3)GLOBAL_UNCERTAINTY_ASSIGNED_CONTEXT((#32))GLOBAL_UNIT_ASSIGNED_CONTEXT((#34,#35,#36))REPRESENTATION_CONTEXT('NONE','WORKSPACE'));
#10=STYLED_ITEM('',(#38),#39);
#11=STYLED_ITEM('',(#40),#41);
#12=STYLED_ITEM('',(#42),#43);
#13=STYLED_ITEM('',(#44),#45);
#14=STYLED_ITEM('',(#46),#47);
#15=STYLED_ITEM('',(#48),#49);
#16=STYLED_ITEM('',(#50),#51);
#17=STYLED_ITEM('',(#52),#53);
#18=STYLED_ITEM('',(#54),#55);
#19=STYLED_ITEM('',(#56),#57);
#20=STYLED_ITEM('',(#58),#59);
#21=STYLED_ITEM('',(#60),#61);
#22=STYLED_ITEM('',(#62),#63);
#23=STYLED_ITEM('',(#64),#65);
#24=STYLED_ITEM('',(#66),#67);
#25=APPLICATION_CONTEXT(' ');
#26=PRODUCT_CATEGORY('part','NONE');
#27=PRODUCT_RELATED_PRODUCT_CATEGORY('detail',' ',(#68));
#28=PRODUCT_DEFINITION_SHAPE('NONE','NONE',#69);
#29=ADVANCED_BREP_SHAPE_REPRESENTATION('E 2072_18',(#51,#70),#6);
#32=UNCERTAINTY_MEASURE_WITH_UNIT(LENGTH_MEASURE(1.0E-006),#34,'','');
#34= (CONVERSION_BASED_UNIT('MILLIMETRE',#73)LENGTH_UNIT()NAMED_UNIT(#76));
#35= (NAMED_UNIT(#78)PLANE_ANGLE_UNIT()SI_UNIT($,.RADIAN.));
#36= (NAMED_UNIT(#78)SOLID_ANGLE_UNIT()SI_UNIT($,.STERADIAN.));
#38=PRESENTATION_STYLE_ASSIGNMENT((#84));
#39=EDGE_CURVE('',#63,#65,#85,.T.);
#40=PRESENTATION_STYLE_ASSIGNMENT((#86));
#41=ADVANCED_FACE('',(#87),#88,.T.);
#42=PRESENTATION_STYLE_ASSIGNMENT((#89));
#43=ADVANCED_FACE('',(#90),#91,.T.);
#44=PRESENTATION_STYLE_ASSIGNMENT((#92));
#45=ADVANCED_FACE('',(#93),#94,.T.);
#46=PRESENTATION_STYLE_ASSIGNMENT((#95));
#47=VERTEX_POINT('',#96);
#48=PRESENTATION_STYLE_ASSIGNMENT((#97));
#49=EDGE_CURVE('',#63,#57,#98,.T.);
#50=PRESENTATION_STYLE_ASSIGNMENT((#99));
#51=MANIFOLD_SOLID_BREP('E 2072_18',#100);
#52=PRESENTATION_STYLE_ASSIGNMENT((#101));
#53=EDGE_CURVE('',#47,#65,#102,.T.);
#54=PRESENTATION_STYLE_ASSIGNMENT((#103));
#55=EDGE_CURVE('',#57,#47,#104,.T.);
#56=PRESENTATION_STYLE_ASSIGNMENT((#105));
#57=VERTEX_POINT('',#106);
#58=PRESENTATION_STYLE_ASSIGNMENT((#107));
#59=EDGE_CURVE('',#65,#63,#108,.T.);
#60=PRESENTATION_STYLE_ASSIGNMENT((#109));
#61=ADVANCED_FACE('',(#110),#111,.T.);
#62=PRESENTATION_STYLE_ASSIGNMENT((#112));
#63=VERTEX_POINT('',#113);
#64=PRESENTATION_STYLE_ASSIGNMENT((#114));
#65=VERTEX_POINT('',#115);
#66=PRESENTATION_STYLE_ASSIGNMENT((#116));
#67=EDGE_CURVE('',#47,#57,#117,.T.);
#68=PRODUCT('E 2072_18','E 2072_18','PART-E 2072_18-DESC',(#118));
#69=PRODUCT_DEFINITION('NONE','NONE',#119,#2);
#70=AXIS2_PLACEMENT_3D('',#120,#121,#122);
#73=LENGTH_MEASURE_WITH_UNIT(LENGTH_MEASURE(1.0),#123);
#76=DIMENSIONAL_EXPONENTS(1.0,0.0,0.0,0.0,0.0,0.0,0.0);
#78=DIMENSIONAL_EXPONENTS(0.0,0.0,0.0,0.0,0.0,0.0,0.0);
#84=CURVE_STYLE('',#124,POSITIVE_LENGTH_MEASURE(1.0E-006),#125);
#85=CIRCLE('',#126,9.0);
#86=SURFACE_STYLE_USAGE(.BOTH.,#127);
#87=FACE_OUTER_BOUND('',#128,.T.);
#88=CYLINDRICAL_SURFACE('',#129,9.0);
#89=SURFACE_STYLE_USAGE(.BOTH.,#130);
#90=FACE_OUTER_BOUND('',#131,.T.);
#91=PLANE('',#132);
#92=SURFACE_STYLE_USAGE(.BOTH.,#133);
#93=FACE_OUTER_BOUND('',#134,.T.);
#94=PLANE('',#135);
#95=POINT_STYLE(' ',#136,POSITIVE_LENGTH_MEASURE(1.0E-006),#137);
#96=CARTESIAN_POINT('',(-9.0,1.10214571844014E-015,2.0));
#97=CURVE_STYLE('',#138,POSITIVE_LENGTH_MEASURE(1.0E-006),#139);
#98=LINE('',#140,#141);
#99=SURFACE_STYLE_USAGE(.BOTH.,#142);
#100=CLOSED_SHELL('',(#61,#41,#43,#45));
#101=CURVE_STYLE('',#143,POSITIVE_LENGTH_MEASURE(1.0E-006),#144);
#102=LINE('',#145,#146);
#103=CURVE_STYLE('',#147,POSITIVE_LENGTH_MEASURE(1.0E-006),#148);
#104=CIRCLE('',#149,9.0);
#105=POINT_STYLE(' ',#150,POSITIVE_LENGTH_MEASURE(1.0E-006),#151);
#106=CARTESIAN_POINT('',(9.0,0.0,2.0));
#107=CURVE_STYLE('',#152,POSITIVE_LENGTH_MEASURE(1.0E-006),#153);
#108=CIRCLE('',#154,9.0);
#109=SURFACE_STYLE_USAGE(.BOTH.,#155);
#110=FACE_OUTER_BOUND('',#156,.T.);
#111=CYLINDRICAL_SURFACE('',#157,9.0);
#112=POINT_STYLE(' ',#158,POSITIVE_LENGTH_MEASURE(1.0E-006),#159);
#113=CARTESIAN_POINT('',(9.0,0.0,0.0));
#114=POINT_STYLE(' ',#160,POSITIVE_LENGTH_MEASURE(1.0E-006),#161);
#115=CARTESIAN_POINT('',(-9.0,1.10214571844014E-015,0.0));
#116=CURVE_STYLE('',#162,POSITIVE_LENGTH_MEASURE(1.0E-006),#163);
#117=CIRCLE('',#164,9.0);
#118=PRODUCT_CONTEXT('',#25,'mechanical');
#119=PRODUCT_DEFINITION_FORMATION_WITH_SPECIFIED_SOURCE(' ','NONE',#68,.NOT_KNOWN.);
#120=CARTESIAN_POINT('',(0.0,0.0,0.0));
#121=DIRECTION('',(0.0,0.0,1.0));
#122=DIRECTION('',(1.0,0.0,0.0));
#123= (NAMED_UNIT(#76)LENGTH_UNIT()SI_UNIT(.MILLI.,.METRE.));
#124=DRAUGHTING_PRE_DEFINED_CURVE_FONT('continuous');
#125=COLOUR_RGB('',0.890196084976196,0.61176472902298,0.356862753629684);
#126=AXIS2_PLACEMENT_3D('',#166,#167,#168);
#127=SURFACE_SIDE_STYLE('',(#169));
#128=EDGE_LOOP('',(#170,#171,#172,#173));
#129=AXIS2_PLACEMENT_3D('',#174,#175,#176);
#130=SURFACE_SIDE_STYLE('',(#177));
#131=EDGE_LOOP('',(#178,#179));
#132=AXIS2_PLACEMENT_3D('',#180,#181,#182);
#133=SURFACE_SIDE_STYLE('',(#183));
#134=EDGE_LOOP('',(#184,#185));
#135=AXIS2_PLACEMENT_3D('',#186,#187,#188);
#136=PRE_DEFINED_MARKER('');
#137=COLOUR_RGB('',0.890196084976196,0.61176472902298,0.356862753629684);
#138=DRAUGHTING_PRE_DEFINED_CURVE_FONT('continuous');
#139=COLOUR_RGB('',0.890196084976196,0.61176472902298,0.356862753629684);
#140=CARTESIAN_POINT('',(9.0,-1.10214571844014E-015,1.0));
#141=VECTOR('',#189,1.0);
#142=SURFACE_SIDE_STYLE('',(#190));
#143=DRAUGHTING_PRE_DEFINED_CURVE_FONT('continuous');
#144=COLOUR_RGB('',0.890196084976196,0.61176472902298,0.356862753629684);
#145=CARTESIAN_POINT('',(-9.0,1.10214571844014E-015,1.0));
#146=VECTOR('',#191,1.0);
#147=DRAUGHTING_PRE_DEFINED_CURVE_FONT('continuous');
#148=COLOUR_RGB('',0.890196084976196,0.61176472902298,0.356862753629684);
#149=AXIS2_PLACEMENT_3D('',#192,#193,#194);
#150=PRE_DEFINED_MARKER('');
#151=COLOUR_RGB('',0.890196084976196,0.61176472902298,0.356862753629684);
#152=DRAUGHTING_PRE_DEFINED_CURVE_FONT('continuous');
#153=COLOUR_RGB('',0.890196084976196,0.61176472902298,0.356862753629684);
#154=AXIS2_PLACEMENT_3D('',#195,#196,#197);
#155=SURFACE_SIDE_STYLE('',(#198));
#156=EDGE_LOOP('',(#199,#200,#201,#202));
#157=AXIS2_PLACEMENT_3D('',#203,#204,#205);
#158=PRE_DEFINED_MARKER('');
#159=COLOUR_RGB('',0.890196084976196,0.61176472902298,0.356862753629684);
#160=PRE_DEFINED_MARKER('');
#161=COLOUR_RGB('',0.890196084976196,0.61176472902298,0.356862753629684);
#162=DRAUGHTING_PRE_DEFINED_CURVE_FONT('continuous');
#163=COLOUR_RGB('',0.890196084976196,0.61176472902298,0.356862753629684);
#164=AXIS2_PLACEMENT_3D('',#206,#207,#208);
#166=CARTESIAN_POINT('',(0.0,0.0,0.0));
#167=DIRECTION('',(0.0,0.0,-1.0));
#168=DIRECTION('',(1.0,0.0,0.0));
#169=SURFACE_STYLE_FILL_AREA(#209);
#170=ORIENTED_EDGE('',*,*,#49,.T.);
#171=ORIENTED_EDGE('',*,*,#67,.F.);
#172=ORIENTED_EDGE('',*,*,#53,.T.);
#173=ORIENTED_EDGE('',*,*,#39,.F.);
#174=CARTESIAN_POINT('',(0.0,0.0,1.0));
#175=DIRECTION('',(-0.0,-0.0,-1.0));
#176=DIRECTION('',(1.0,0.0,0.0));
#177=SURFACE_STYLE_FILL_AREA(#210);
#178=ORIENTED_EDGE('',*,*,#39,.T.);
#179=ORIENTED_EDGE('',*,*,#59,.T.);
#180=CARTESIAN_POINT('',(0.0,0.0,0.0));
#181=DIRECTION('',(0.0,0.0,-1.0));
#182=DIRECTION('',(-1.0,0.0,0.0));
#183=SURFACE_STYLE_FILL_AREA(#211);
#184=ORIENTED_EDGE('',*,*,#55,.T.);
#185=ORIENTED_EDGE('',*,*,#67,.T.);
#186=CARTESIAN_POINT('',(0.0,0.0,2.0));
#187=DIRECTION('',(0.0,0.0,1.0));
#188=DIRECTION('',(1.0,0.0,0.0));
#189=DIRECTION('',(0.0,0.0,1.0));
#190=SURFACE_STYLE_FILL_AREA(#212);
#191=DIRECTION('',(-0.0,-0.0,-1.0));
#192=CARTESIAN_POINT('',(0.0,0.0,2.0));
#193=DIRECTION('',(0.0,0.0,1.0));
#194=DIRECTION('',(1.0,0.0,0.0));
#195=CARTESIAN_POINT('',(0.0,0.0,0.0));
#196=DIRECTION('',(0.0,0.0,-1.0));
#197=DIRECTION('',(1.0,0.0,0.0));
#198=SURFACE_STYLE_FILL_AREA(#213);
#199=ORIENTED_EDGE('',*,*,#49,.F.);
#200=ORIENTED_EDGE('',*,*,#59,.F.);
#201=ORIENTED_EDGE('',*,*,#53,.F.);
#202=ORIENTED_EDGE('',*,*,#55,.F.);
#203=CARTESIAN_POINT('',(0.0,0.0,1.0));
#204=DIRECTION('',(-0.0,-0.0,-1.0));
#205=DIRECTION('',(1.0,0.0,0.0));
#206=CARTESIAN_POINT('',(0.0,0.0,2.0));
#207=DIRECTION('',(0.0,0.0,1.0));
#208=DIRECTION('',(1.0,0.0,0.0));
#209=FILL_AREA_STYLE('',(#214));
#210=FILL_AREA_STYLE('',(#215));
#211=FILL_AREA_STYLE('',(#216));
#212=FILL_AREA_STYLE('',(#217));
#213=FILL_AREA_STYLE('',(#218));
#214=FILL_AREA_STYLE_COLOUR('',#219);
#215=FILL_AREA_STYLE_COLOUR('',#220);
#216=FILL_AREA_STYLE_COLOUR('',#221);
#217=FILL_AREA_STYLE_COLOUR('',#222);
#218=FILL_AREA_STYLE_COLOUR('',#223);
#219=COLOUR_RGB('',0.890196084976196,0.61176472902298,0.356862753629684);
#220=COLOUR_RGB('',0.890196084976196,0.61176472902298,0.356862753629684);
#221=COLOUR_RGB('',0.890196084976196,0.61176472902298,0.356862753629684);
#222=COLOUR_RGB('',0.890196084976196,0.61176472902298,0.356862753629684);
#223=COLOUR_RGB('',0.890196084976196,0.61176472902298,0.356862753629684);
ENDSEC;
END-ISO-10303-21;
