ISO-10303-21;
HEADER;
/* Generated by software containing ST-Developer
 * from STEP Tools, Inc. (www.steptools.com) 
 */
/* OPTION: using custom renumber hook */

FILE_DESCRIPTION(
/* description */ ('STEP AP214'),
/* implementation_level */ '2;1');

FILE_NAME(
/* name */ 'PST-R003',
/* time_stamp */ '2023-09-12T10:20:24+02:00',
/* author */ ('License CC BY-ND 4.0'),
/* organization */ ('CADENAS'),
/* preprocessor_version */ 'ST-DEVELOPER v19.3',
/* originating_system */ 'PARTsolutions',
/* authorisation */ '  ');

FILE_SCHEMA (('AUTOMOTIVE_DESIGN {1 0 10303 214 3 1 1}'));
ENDSEC;

DATA;
#10=PROPERTY_DEFINITION_REPRESENTATION(#14,#12);
#11=PROPERTY_DEFINITION_REPRESENTATION(#15,#13);
#12=REPRESENTATION('',(#16),#357);
#13=REPRESENTATION('',(#17),#357);
#14=PROPERTY_DEFINITION('pmi validation property','',#362);
#15=PROPERTY_DEFINITION('pmi validation property','',#362);
#16=VALUE_REPRESENTATION_ITEM('number of annotations',COUNT_MEASURE(0.));
#17=VALUE_REPRESENTATION_ITEM('number of views',COUNT_MEASURE(0.));
#18=SHAPE_REPRESENTATION_RELATIONSHIP('','',#207,#19);
#19=ADVANCED_BREP_SHAPE_REPRESENTATION('',(#205),#357);
#20=CONICAL_SURFACE('',#226,24.,0.785398163397449);
#21=CONICAL_SURFACE('',#230,25.,0.785398163397449);
#22=CYLINDRICAL_SURFACE('',#218,3.5);
#23=CYLINDRICAL_SURFACE('',#222,6.);
#24=CYLINDRICAL_SURFACE('',#228,25.);
#25=CYLINDRICAL_SURFACE('',#231,11.);
#26=CYLINDRICAL_SURFACE('',#233,13.);
#27=CYLINDRICAL_SURFACE('',#236,17.);
#28=CYLINDRICAL_SURFACE('',#238,19.);
#29=ORIENTED_EDGE('',*,*,#61,.T.);
#30=ORIENTED_EDGE('',*,*,#62,.F.);
#31=ORIENTED_EDGE('',*,*,#63,.T.);
#32=ORIENTED_EDGE('',*,*,#64,.F.);
#33=ORIENTED_EDGE('',*,*,#65,.T.);
#34=ORIENTED_EDGE('',*,*,#66,.F.);
#35=ORIENTED_EDGE('',*,*,#67,.T.);
#36=ORIENTED_EDGE('',*,*,#65,.F.);
#37=ORIENTED_EDGE('',*,*,#68,.T.);
#38=ORIENTED_EDGE('',*,*,#67,.F.);
#39=ORIENTED_EDGE('',*,*,#64,.T.);
#40=ORIENTED_EDGE('',*,*,#68,.F.);
#41=ORIENTED_EDGE('',*,*,#69,.T.);
#42=ORIENTED_EDGE('',*,*,#70,.F.);
#43=ORIENTED_EDGE('',*,*,#71,.T.);
#44=ORIENTED_EDGE('',*,*,#69,.F.);
#45=ORIENTED_EDGE('',*,*,#72,.T.);
#46=ORIENTED_EDGE('',*,*,#71,.F.);
#47=ORIENTED_EDGE('',*,*,#66,.T.);
#48=ORIENTED_EDGE('',*,*,#72,.F.);
#49=ORIENTED_EDGE('',*,*,#73,.T.);
#50=ORIENTED_EDGE('',*,*,#63,.F.);
#51=ORIENTED_EDGE('',*,*,#74,.F.);
#52=ORIENTED_EDGE('',*,*,#62,.T.);
#53=ORIENTED_EDGE('',*,*,#73,.F.);
#54=ORIENTED_EDGE('',*,*,#74,.T.);
#55=ORIENTED_EDGE('',*,*,#75,.T.);
#56=ORIENTED_EDGE('',*,*,#61,.F.);
#57=ORIENTED_EDGE('',*,*,#76,.F.);
#58=ORIENTED_EDGE('',*,*,#70,.T.);
#59=ORIENTED_EDGE('',*,*,#75,.F.);
#60=ORIENTED_EDGE('',*,*,#76,.T.);
#61=EDGE_CURVE('',#77,#77,#93,.T.);
#62=EDGE_CURVE('',#78,#78,#94,.T.);
#63=EDGE_CURVE('',#79,#79,#95,.T.);
#64=EDGE_CURVE('',#80,#80,#96,.T.);
#65=EDGE_CURVE('',#81,#81,#97,.T.);
#66=EDGE_CURVE('',#82,#82,#98,.T.);
#67=EDGE_CURVE('',#83,#83,#99,.T.);
#68=EDGE_CURVE('',#84,#84,#100,.T.);
#69=EDGE_CURVE('',#85,#85,#101,.T.);
#70=EDGE_CURVE('',#86,#86,#102,.T.);
#71=EDGE_CURVE('',#87,#87,#103,.T.);
#72=EDGE_CURVE('',#88,#88,#104,.T.);
#73=EDGE_CURVE('',#89,#89,#105,.T.);
#74=EDGE_CURVE('',#90,#90,#106,.T.);
#75=EDGE_CURVE('',#91,#91,#107,.T.);
#76=EDGE_CURVE('',#92,#92,#108,.T.);
#77=VERTEX_POINT('',#310);
#78=VERTEX_POINT('',#312);
#79=VERTEX_POINT('',#315);
#80=VERTEX_POINT('',#317);
#81=VERTEX_POINT('',#320);
#82=VERTEX_POINT('',#322);
#83=VERTEX_POINT('',#325);
#84=VERTEX_POINT('',#328);
#85=VERTEX_POINT('',#332);
#86=VERTEX_POINT('',#334);
#87=VERTEX_POINT('',#337);
#88=VERTEX_POINT('',#340);
#89=VERTEX_POINT('',#344);
#90=VERTEX_POINT('',#347);
#91=VERTEX_POINT('',#351);
#92=VERTEX_POINT('',#354);
#93=CIRCLE('',#210,17.);
#94=CIRCLE('',#211,13.);
#95=CIRCLE('',#213,11.);
#96=CIRCLE('',#214,6.);
#97=CIRCLE('',#216,3.5);
#98=CIRCLE('',#217,23.);
#99=CIRCLE('',#219,3.5);
#100=CIRCLE('',#221,6.);
#101=CIRCLE('',#224,24.);
#102=CIRCLE('',#225,19.);
#103=CIRCLE('',#227,25.);
#104=CIRCLE('',#229,25.);
#105=CIRCLE('',#232,11.);
#106=CIRCLE('',#234,13.);
#107=CIRCLE('',#237,17.);
#108=CIRCLE('',#239,19.);
#109=EDGE_LOOP('',(#29));
#110=EDGE_LOOP('',(#30));
#111=EDGE_LOOP('',(#31));
#112=EDGE_LOOP('',(#32));
#113=EDGE_LOOP('',(#33));
#114=EDGE_LOOP('',(#34));
#115=EDGE_LOOP('',(#35));
#116=EDGE_LOOP('',(#36));
#117=EDGE_LOOP('',(#37));
#118=EDGE_LOOP('',(#38));
#119=EDGE_LOOP('',(#39));
#120=EDGE_LOOP('',(#40));
#121=EDGE_LOOP('',(#41));
#122=EDGE_LOOP('',(#42));
#123=EDGE_LOOP('',(#43));
#124=EDGE_LOOP('',(#44));
#125=EDGE_LOOP('',(#45));
#126=EDGE_LOOP('',(#46));
#127=EDGE_LOOP('',(#47));
#128=EDGE_LOOP('',(#48));
#129=EDGE_LOOP('',(#49));
#130=EDGE_LOOP('',(#50));
#131=EDGE_LOOP('',(#51));
#132=EDGE_LOOP('',(#52));
#133=EDGE_LOOP('',(#53));
#134=EDGE_LOOP('',(#54));
#135=EDGE_LOOP('',(#55));
#136=EDGE_LOOP('',(#56));
#137=EDGE_LOOP('',(#57));
#138=EDGE_LOOP('',(#58));
#139=EDGE_LOOP('',(#59));
#140=EDGE_LOOP('',(#60));
#141=FACE_BOUND('',#109,.T.);
#142=FACE_BOUND('',#110,.T.);
#143=FACE_BOUND('',#111,.T.);
#144=FACE_BOUND('',#112,.T.);
#145=FACE_BOUND('',#113,.T.);
#146=FACE_BOUND('',#114,.T.);
#147=FACE_BOUND('',#115,.T.);
#148=FACE_BOUND('',#116,.T.);
#149=FACE_BOUND('',#117,.T.);
#150=FACE_BOUND('',#118,.T.);
#151=FACE_BOUND('',#119,.T.);
#152=FACE_BOUND('',#120,.T.);
#153=FACE_BOUND('',#121,.T.);
#154=FACE_BOUND('',#122,.T.);
#155=FACE_BOUND('',#123,.T.);
#156=FACE_BOUND('',#124,.T.);
#157=FACE_BOUND('',#125,.T.);
#158=FACE_BOUND('',#126,.T.);
#159=FACE_BOUND('',#127,.T.);
#160=FACE_BOUND('',#128,.T.);
#161=FACE_BOUND('',#129,.T.);
#162=FACE_BOUND('',#130,.T.);
#163=FACE_BOUND('',#131,.T.);
#164=FACE_BOUND('',#132,.T.);
#165=FACE_BOUND('',#133,.T.);
#166=FACE_BOUND('',#134,.T.);
#167=FACE_BOUND('',#135,.T.);
#168=FACE_BOUND('',#136,.T.);
#169=FACE_BOUND('',#137,.T.);
#170=FACE_BOUND('',#138,.T.);
#171=FACE_BOUND('',#139,.T.);
#172=FACE_BOUND('',#140,.T.);
#173=PLANE('',#209);
#174=PLANE('',#212);
#175=PLANE('',#215);
#176=PLANE('',#220);
#177=PLANE('',#223);
#178=PLANE('',#235);
#179=PLANE('',#240);
#180=ADVANCED_FACE('',(#141,#142),#173,.T.);
#181=ADVANCED_FACE('',(#143,#144),#174,.T.);
#182=ADVANCED_FACE('',(#145,#146),#175,.T.);
#183=ADVANCED_FACE('',(#147,#148),#22,.F.);
#184=ADVANCED_FACE('',(#149,#150),#176,.T.);
#185=ADVANCED_FACE('',(#151,#152),#23,.F.);
#186=ADVANCED_FACE('',(#153,#154),#177,.T.);
#187=ADVANCED_FACE('',(#155,#156),#20,.T.);
#188=ADVANCED_FACE('',(#157,#158),#24,.T.);
#189=ADVANCED_FACE('',(#159,#160),#21,.T.);
#190=ADVANCED_FACE('',(#161,#162),#25,.T.);
#191=ADVANCED_FACE('',(#163,#164),#26,.F.);
#192=ADVANCED_FACE('',(#165,#166),#178,.T.);
#193=ADVANCED_FACE('',(#167,#168),#27,.T.);
#194=ADVANCED_FACE('',(#169,#170),#28,.F.);
#195=ADVANCED_FACE('',(#171,#172),#179,.T.);
#196=CLOSED_SHELL('',(#180,#181,#182,#183,#184,#185,#186,#187,#188,#189,
#190,#191,#192,#193,#194,#195));
#197=STYLED_ITEM('',(#198),#205);
#198=PRESENTATION_STYLE_ASSIGNMENT((#199));
#199=SURFACE_STYLE_USAGE(.BOTH.,#200);
#200=SURFACE_SIDE_STYLE('',(#201));
#201=SURFACE_STYLE_FILL_AREA(#202);
#202=FILL_AREA_STYLE('',(#203));
#203=FILL_AREA_STYLE_COLOUR('',#204);
#204=COLOUR_RGB('',0.689999997615814,0.689999997615814,0.689999997615814);
#205=MANIFOLD_SOLID_BREP('PST-R003',#196);
#206=SHAPE_DEFINITION_REPRESENTATION(#362,#207);
#207=SHAPE_REPRESENTATION('PST-R003',(#208),#357);
#208=AXIS2_PLACEMENT_3D('',#307,#241,#242);
#209=AXIS2_PLACEMENT_3D('',#308,#243,#244);
#210=AXIS2_PLACEMENT_3D('',#309,#245,#246);
#211=AXIS2_PLACEMENT_3D('',#311,#247,#248);
#212=AXIS2_PLACEMENT_3D('',#313,#249,#250);
#213=AXIS2_PLACEMENT_3D('',#314,#251,#252);
#214=AXIS2_PLACEMENT_3D('',#316,#253,#254);
#215=AXIS2_PLACEMENT_3D('',#318,#255,#256);
#216=AXIS2_PLACEMENT_3D('',#319,#257,#258);
#217=AXIS2_PLACEMENT_3D('',#321,#259,#260);
#218=AXIS2_PLACEMENT_3D('',#323,#261,#262);
#219=AXIS2_PLACEMENT_3D('',#324,#263,#264);
#220=AXIS2_PLACEMENT_3D('',#326,#265,#266);
#221=AXIS2_PLACEMENT_3D('',#327,#267,#268);
#222=AXIS2_PLACEMENT_3D('',#329,#269,#270);
#223=AXIS2_PLACEMENT_3D('',#330,#271,#272);
#224=AXIS2_PLACEMENT_3D('',#331,#273,#274);
#225=AXIS2_PLACEMENT_3D('',#333,#275,#276);
#226=AXIS2_PLACEMENT_3D('',#335,#277,#278);
#227=AXIS2_PLACEMENT_3D('',#336,#279,#280);
#228=AXIS2_PLACEMENT_3D('',#338,#281,#282);
#229=AXIS2_PLACEMENT_3D('',#339,#283,#284);
#230=AXIS2_PLACEMENT_3D('',#341,#285,#286);
#231=AXIS2_PLACEMENT_3D('',#342,#287,#288);
#232=AXIS2_PLACEMENT_3D('',#343,#289,#290);
#233=AXIS2_PLACEMENT_3D('',#345,#291,#292);
#234=AXIS2_PLACEMENT_3D('',#346,#293,#294);
#235=AXIS2_PLACEMENT_3D('',#348,#295,#296);
#236=AXIS2_PLACEMENT_3D('',#349,#297,#298);
#237=AXIS2_PLACEMENT_3D('',#350,#299,#300);
#238=AXIS2_PLACEMENT_3D('',#352,#301,#302);
#239=AXIS2_PLACEMENT_3D('',#353,#303,#304);
#240=AXIS2_PLACEMENT_3D('',#355,#305,#306);
#241=DIRECTION('',(0.,0.,1.));
#242=DIRECTION('',(1.,0.,0.));
#243=DIRECTION('',(0.,0.,1.));
#244=DIRECTION('',(1.,0.,0.));
#245=DIRECTION('',(0.,0.,1.));
#246=DIRECTION('',(1.,0.,0.));
#247=DIRECTION('',(0.,0.,1.));
#248=DIRECTION('',(1.,0.,0.));
#249=DIRECTION('',(0.,0.,1.));
#250=DIRECTION('',(1.,0.,0.));
#251=DIRECTION('',(0.,0.,1.));
#252=DIRECTION('',(1.,0.,0.));
#253=DIRECTION('',(0.,0.,1.));
#254=DIRECTION('',(1.,0.,0.));
#255=DIRECTION('',(0.,0.,-1.));
#256=DIRECTION('',(-1.,0.,0.));
#257=DIRECTION('',(0.,0.,1.));
#258=DIRECTION('',(1.,0.,0.));
#259=DIRECTION('',(0.,0.,1.));
#260=DIRECTION('',(1.,0.,0.));
#261=DIRECTION('',(0.,0.,1.));
#262=DIRECTION('',(1.,0.,0.));
#263=DIRECTION('',(0.,0.,1.));
#264=DIRECTION('',(1.,0.,0.));
#265=DIRECTION('',(0.,0.,1.));
#266=DIRECTION('',(1.,0.,0.));
#267=DIRECTION('',(0.,0.,1.));
#268=DIRECTION('',(1.,0.,0.));
#269=DIRECTION('',(0.,0.,1.));
#270=DIRECTION('',(1.,0.,0.));
#271=DIRECTION('',(0.,0.,1.));
#272=DIRECTION('',(1.,0.,0.));
#273=DIRECTION('',(0.,0.,1.));
#274=DIRECTION('',(1.,0.,0.));
#275=DIRECTION('',(0.,0.,1.));
#276=DIRECTION('',(1.,0.,0.));
#277=DIRECTION('',(0.,0.,-1.));
#278=DIRECTION('',(-1.,0.,0.));
#279=DIRECTION('',(0.,0.,1.));
#280=DIRECTION('',(1.,0.,0.));
#281=DIRECTION('',(0.,0.,1.));
#282=DIRECTION('',(1.,0.,0.));
#283=DIRECTION('',(0.,0.,1.));
#284=DIRECTION('',(1.,0.,0.));
#285=DIRECTION('',(0.,0.,1.));
#286=DIRECTION('',(1.,0.,0.));
#287=DIRECTION('',(0.,0.,1.));
#288=DIRECTION('',(1.,0.,0.));
#289=DIRECTION('',(0.,0.,1.));
#290=DIRECTION('',(1.,0.,0.));
#291=DIRECTION('',(0.,0.,1.));
#292=DIRECTION('',(1.,0.,0.));
#293=DIRECTION('',(0.,0.,1.));
#294=DIRECTION('',(1.,0.,0.));
#295=DIRECTION('',(0.,0.,1.));
#296=DIRECTION('',(1.,0.,0.));
#297=DIRECTION('',(0.,0.,1.));
#298=DIRECTION('',(1.,0.,0.));
#299=DIRECTION('',(0.,0.,1.));
#300=DIRECTION('',(1.,0.,0.));
#301=DIRECTION('',(0.,0.,1.));
#302=DIRECTION('',(1.,0.,0.));
#303=DIRECTION('',(0.,0.,1.));
#304=DIRECTION('',(1.,0.,0.));
#305=DIRECTION('',(0.,0.,1.));
#306=DIRECTION('',(1.,0.,0.));
#307=CARTESIAN_POINT('',(0.,0.,0.));
#308=CARTESIAN_POINT('',(6.,0.,10.1));
#309=CARTESIAN_POINT('',(0.,0.,10.1));
#310=CARTESIAN_POINT('',(17.,0.,10.1));
#311=CARTESIAN_POINT('',(0.,0.,10.1));
#312=CARTESIAN_POINT('',(13.,0.,10.1));
#313=CARTESIAN_POINT('',(6.,0.,10.1));
#314=CARTESIAN_POINT('',(0.,0.,10.1));
#315=CARTESIAN_POINT('',(11.,0.,10.1));
#316=CARTESIAN_POINT('',(0.,0.,10.1));
#317=CARTESIAN_POINT('',(6.,0.,10.1));
#318=CARTESIAN_POINT('',(23.,0.,0.));
#319=CARTESIAN_POINT('',(0.,0.,0.));
#320=CARTESIAN_POINT('',(3.5,0.,0.));
#321=CARTESIAN_POINT('',(0.,0.,0.));
#322=CARTESIAN_POINT('',(23.,0.,0.));
#323=CARTESIAN_POINT('',(0.,0.,10.1));
#324=CARTESIAN_POINT('',(0.,0.,3.1));
#325=CARTESIAN_POINT('',(3.5,0.,3.1));
#326=CARTESIAN_POINT('',(3.5,0.,3.1));
#327=CARTESIAN_POINT('',(0.,0.,3.1));
#328=CARTESIAN_POINT('',(6.,0.,3.1));
#329=CARTESIAN_POINT('',(0.,0.,10.1));
#330=CARTESIAN_POINT('',(6.,0.,10.1));
#331=CARTESIAN_POINT('',(0.,0.,10.1));
#332=CARTESIAN_POINT('',(24.,0.,10.1));
#333=CARTESIAN_POINT('',(0.,0.,10.1));
#334=CARTESIAN_POINT('',(19.,0.,10.1));
#335=CARTESIAN_POINT('',(0.,0.,10.1));
#336=CARTESIAN_POINT('',(0.,0.,9.1));
#337=CARTESIAN_POINT('',(25.,0.,9.1));
#338=CARTESIAN_POINT('',(0.,0.,10.1));
#339=CARTESIAN_POINT('',(0.,0.,2.));
#340=CARTESIAN_POINT('',(25.,0.,2.));
#341=CARTESIAN_POINT('',(0.,0.,2.));
#342=CARTESIAN_POINT('',(0.,0.,9.35));
#343=CARTESIAN_POINT('',(0.,0.,9.35));
#344=CARTESIAN_POINT('',(11.,0.,9.35));
#345=CARTESIAN_POINT('',(0.,0.,9.35));
#346=CARTESIAN_POINT('',(0.,0.,9.35));
#347=CARTESIAN_POINT('',(13.,0.,9.35));
#348=CARTESIAN_POINT('',(0.,0.,9.35));
#349=CARTESIAN_POINT('',(0.,0.,9.35));
#350=CARTESIAN_POINT('',(0.,0.,9.35));
#351=CARTESIAN_POINT('',(17.,0.,9.35));
#352=CARTESIAN_POINT('',(0.,0.,9.35));
#353=CARTESIAN_POINT('',(0.,0.,9.35));
#354=CARTESIAN_POINT('',(19.,0.,9.35));
#355=CARTESIAN_POINT('',(0.,0.,9.35));
#356=MECHANICAL_DESIGN_GEOMETRIC_PRESENTATION_REPRESENTATION('',(#197),
#357);
#357=(
GEOMETRIC_REPRESENTATION_CONTEXT(3)
GLOBAL_UNCERTAINTY_ASSIGNED_CONTEXT((#358))
GLOBAL_UNIT_ASSIGNED_CONTEXT((#361,#360,#359))
REPRESENTATION_CONTEXT('PST-R003','TOP_LEVEL_ASSEMBLY_PART')
);
#358=UNCERTAINTY_MEASURE_WITH_UNIT(LENGTH_MEASURE(0.005),#361,
'DISTANCE_ACCURACY_VALUE','Maximum Tolerance applied to model');
#359=(
NAMED_UNIT(*)
SI_UNIT($,.STERADIAN.)
SOLID_ANGLE_UNIT()
);
#360=(
NAMED_UNIT(*)
PLANE_ANGLE_UNIT()
SI_UNIT($,.RADIAN.)
);
#361=(
LENGTH_UNIT()
NAMED_UNIT(*)
SI_UNIT(.MILLI.,.METRE.)
);
#362=PRODUCT_DEFINITION_SHAPE('','',#363);
#363=PRODUCT_DEFINITION('','',#365,#364);
#364=PRODUCT_DEFINITION_CONTEXT('',#371,'design');
#365=PRODUCT_DEFINITION_FORMATION_WITH_SPECIFIED_SOURCE('','',#367,
 .NOT_KNOWN.);
#366=PRODUCT_RELATED_PRODUCT_CATEGORY('','',(#367));
#367=PRODUCT('PST-R003','PST-R003','PST-R003',(#369));
#368=PRODUCT_CATEGORY('','');
#369=PRODUCT_CONTEXT('',#371,'mechanical');
#370=APPLICATION_PROTOCOL_DEFINITION('international standard',
'automotive_design',2010,#371);
#371=APPLICATION_CONTEXT(
'core data for automotive mechanical design processes');
ENDSEC;
END-ISO-10303-21;
