ISO-10303-21;
HEADER;
FILE_DESCRIPTION( ( 'STEP AP203' ), ' ' );
FILE_NAME( 'p:/temp/worker_46/4508_3184/app_52_02016031111375888651939192d056f_000000_00_00_000000/format_0/2961.70.048.100.stp', '2016-03-11T10:37:59', ( '' ), ( '' ), ' ', 'PARTsolutions', ' ' );
FILE_SCHEMA( ( 'CONFIG_CONTROL_DESIGN' ) );
ENDSEC;
DATA;
#1 = DESIGN_CONTEXT( '', #27, 'design' );
#2 = APPLICATION_PROTOCOL_DEFINITION( 'international standard', 'config_control_design', 1994, #27 );
#3 = PRODUCT_CATEGORY_RELATIONSHIP( 'NONE', 'NONE', #28, #29 );
#4 = DATE_AND_TIME( #30, #31 );
#5 = DATE_TIME_ROLE( 'creation_date' );
#6 = DATE_TIME_ROLE( 'classification_date' );
#7 = PERSON_AND_ORGANIZATION_ROLE( 'creator' );
#8 = PERSON_AND_ORGANIZATION_ROLE( 'design_supplier' );
#9 = PERSON_AND_ORGANIZATION_ROLE( 'classification_officer' );
#10 = PERSON_AND_ORGANIZATION_ROLE( 'design_owner' );
#11 = APPROVAL_PERSON_ORGANIZATION( #32, #33, #34 );
#12 = APPROVAL_DATE_TIME( #4, #33 );
#13 = CC_DESIGN_APPROVAL( #33, ( #35, #36, #37 ) );
#14 = CC_DESIGN_DATE_AND_TIME_ASSIGNMENT( #4, #5, ( #37 ) );
#15 = CC_DESIGN_DATE_AND_TIME_ASSIGNMENT( #4, #6, ( #35 ) );
#16 = CC_DESIGN_PERSON_AND_ORGANIZATION_ASSIGNMENT( #32, #10, ( #38 ) );
#17 = CC_DESIGN_PERSON_AND_ORGANIZATION_ASSIGNMENT( #32, #7, ( #37 ) );
#18 = CC_DESIGN_PERSON_AND_ORGANIZATION_ASSIGNMENT( #32, #7, ( #36 ) );
#19 = CC_DESIGN_PERSON_AND_ORGANIZATION_ASSIGNMENT( #32, #8, ( #36 ) );
#20 = CC_DESIGN_SECURITY_CLASSIFICATION( #35, ( #36 ) );
#21 = CC_DESIGN_PERSON_AND_ORGANIZATION_ASSIGNMENT( #32, #9, ( #35 ) );
#22 = SHAPE_DEFINITION_REPRESENTATION( #39, #40 );
#23 =  ( GEOMETRIC_REPRESENTATION_CONTEXT( 3 )GLOBAL_UNCERTAINTY_ASSIGNED_CONTEXT( ( #43 ) )GLOBAL_UNIT_ASSIGNED_CONTEXT( ( #45, #46, #47 ) )REPRESENTATION_CONTEXT( 'NONE', 'WORKSPACE' ) );
#27 = APPLICATION_CONTEXT( 'configuration controlled 3D designs of mechanical parts and assemblies' );
#28 = PRODUCT_CATEGORY( 'part', 'NONE' );
#29 = PRODUCT_RELATED_PRODUCT_CATEGORY( 'detail', ' ', ( #38 ) );
#30 = CALENDAR_DATE( 2016, 11, 2 );
#31 = LOCAL_TIME( 11, 37, 59.0000000000000, #49 );
#32 = PERSON_AND_ORGANIZATION( #50, #51 );
#33 = APPROVAL( #52, 'SOLID MODEL' );
#34 = APPROVAL_ROLE( 'APPROVED' );
#35 = SECURITY_CLASSIFICATION( '', '', #53 );
#36 = PRODUCT_DEFINITION_FORMATION_WITH_SPECIFIED_SOURCE( ' ', 'NONE', #38, .NOT_KNOWN. );
#37 = PRODUCT_DEFINITION( 'NONE', 'NONE', #36, #1 );
#38 = PRODUCT( '_2961.70.048.100', '_2961.70.048.100', 'PART-_2961.70.048.100-DESC', ( #54 ) );
#39 = PRODUCT_DEFINITION_SHAPE( 'NONE', 'NONE', #37 );
#40 = ADVANCED_BREP_SHAPE_REPRESENTATION( '_2961.70.048.100', ( #55, #56 ), #23 );
#43 = UNCERTAINTY_MEASURE_WITH_UNIT( LENGTH_MEASURE( 0.00100000000000000 ), #45, '', '' );
#45 =  ( CONVERSION_BASED_UNIT( 'MILLIMETRE', #59 )LENGTH_UNIT(  )NAMED_UNIT( #62 ) );
#46 =  ( NAMED_UNIT( #64 )PLANE_ANGLE_UNIT(  )SI_UNIT( $, .RADIAN. ) );
#47 =  ( NAMED_UNIT( #64 )SI_UNIT( $, .STERADIAN. )SOLID_ANGLE_UNIT(  ) );
#49 = COORDINATED_UNIVERSAL_TIME_OFFSET( 1, 0, .AHEAD. );
#50 = PERSON( '', 'UNSPECIFIED', $, $, $, $ );
#51 = ORGANIZATION( 'UNSPECIFIED', 'UNSPECIFIED', 'UNSPECIFIED' );
#52 = APPROVAL_STATUS( 'approved' );
#53 = SECURITY_CLASSIFICATION_LEVEL( 'unclassified' );
#54 = MECHANICAL_CONTEXT( '', #27, 'mechanical' );
#55 = MANIFOLD_SOLID_BREP( '_2961.70.048.100', #70 );
#56 = AXIS2_PLACEMENT_3D( '', #71, #72, #73 );
#59 = LENGTH_MEASURE_WITH_UNIT( LENGTH_MEASURE( 1.00000000000000 ), #74 );
#62 = DIMENSIONAL_EXPONENTS( 1.00000000000000, 0.000000000000000, 0.000000000000000, 0.000000000000000, 0.000000000000000, 0.000000000000000, 0.000000000000000 );
#64 = DIMENSIONAL_EXPONENTS( 0.000000000000000, 0.000000000000000, 0.000000000000000, 0.000000000000000, 0.000000000000000, 0.000000000000000, 0.000000000000000 );
#70 = CLOSED_SHELL( '', ( #75, #76, #77, #78, #79, #80, #81, #82, #83, #84, #85, #86, #87, #88 ) );
#71 = CARTESIAN_POINT( '', ( 0.000000000000000, 0.000000000000000, 0.000000000000000 ) );
#72 = DIRECTION( '', ( 0.000000000000000, 0.000000000000000, 1.00000000000000 ) );
#73 = DIRECTION( '', ( 1.00000000000000, 0.000000000000000, 0.000000000000000 ) );
#74 =  ( LENGTH_UNIT(  )NAMED_UNIT( #62 )SI_UNIT( .MILLI., .METRE. ) );
#75 = ADVANCED_FACE( '', ( #90, #91, #92 ), #93, .T. );
#76 = ADVANCED_FACE( '', ( #94, #95 ), #96, .F. );
#77 = ADVANCED_FACE( '', ( #97, #98 ), #99, .T. );
#78 = ADVANCED_FACE( '', ( #100, #101 ), #102, .F. );
#79 = ADVANCED_FACE( '', ( #103, #104, #105 ), #106, .T. );
#80 = ADVANCED_FACE( '', ( #107 ), #108, .F. );
#81 = ADVANCED_FACE( '', ( #109 ), #110, .T. );
#82 = ADVANCED_FACE( '', ( #111 ), #112, .T. );
#83 = ADVANCED_FACE( '', ( #113 ), #114, .T. );
#84 = ADVANCED_FACE( '', ( #115 ), #116, .T. );
#85 = ADVANCED_FACE( '', ( #117 ), #118, .T. );
#86 = ADVANCED_FACE( '', ( #119, #120 ), #121, .F. );
#87 = ADVANCED_FACE( '', ( #122, #123 ), #124, .T. );
#88 = ADVANCED_FACE( '', ( #125, #126 ), #127, .F. );
#90 = FACE_BOUND( '', #128, .T. );
#91 = FACE_BOUND( '', #129, .T. );
#92 = FACE_OUTER_BOUND( '', #130, .T. );
#93 = PLANE( '', #131 );
#94 = FACE_OUTER_BOUND( '', #132, .T. );
#95 = FACE_OUTER_BOUND( '', #133, .T. );
#96 = CYLINDRICAL_SURFACE( '', #134, 3.30000000000000 );
#97 = FACE_BOUND( '', #135, .T. );
#98 = FACE_OUTER_BOUND( '', #136, .T. );
#99 = PLANE( '', #137 );
#100 = FACE_OUTER_BOUND( '', #138, .T. );
#101 = FACE_OUTER_BOUND( '', #139, .T. );
#102 = CYLINDRICAL_SURFACE( '', #140, 5.50000000000000 );
#103 = FACE_BOUND( '', #141, .T. );
#104 = FACE_BOUND( '', #142, .T. );
#105 = FACE_OUTER_BOUND( '', #143, .T. );
#106 = PLANE( '', #144 );
#107 = FACE_OUTER_BOUND( '', #145, .T. );
#108 = PLANE( '', #146 );
#109 = FACE_OUTER_BOUND( '', #147, .T. );
#110 = CYLINDRICAL_SURFACE( '', #148, 2.00000000000001 );
#111 = FACE_OUTER_BOUND( '', #149, .T. );
#112 = CYLINDRICAL_SURFACE( '', #150, 2.00000000000000 );
#113 = FACE_OUTER_BOUND( '', #151, .T. );
#114 = PLANE( '', #152 );
#115 = FACE_OUTER_BOUND( '', #153, .T. );
#116 = PLANE( '', #154 );
#117 = FACE_OUTER_BOUND( '', #155, .T. );
#118 = PLANE( '', #156 );
#119 = FACE_OUTER_BOUND( '', #157, .T. );
#120 = FACE_OUTER_BOUND( '', #158, .T. );
#121 = CYLINDRICAL_SURFACE( '', #159, 5.50000000000001 );
#122 = FACE_BOUND( '', #160, .T. );
#123 = FACE_OUTER_BOUND( '', #161, .T. );
#124 = PLANE( '', #162 );
#125 = FACE_OUTER_BOUND( '', #163, .T. );
#126 = FACE_OUTER_BOUND( '', #164, .T. );
#127 = CYLINDRICAL_SURFACE( '', #165, 3.30000000000000 );
#128 = EDGE_LOOP( '', ( #166 ) );
#129 = EDGE_LOOP( '', ( #167 ) );
#130 = EDGE_LOOP( '', ( #168, #169, #170, #171 ) );
#131 = AXIS2_PLACEMENT_3D( '', #172, #173, #174 );
#132 = EDGE_LOOP( '', ( #175 ) );
#133 = EDGE_LOOP( '', ( #176 ) );
#134 = AXIS2_PLACEMENT_3D( '', #177, #178, #179 );
#135 = EDGE_LOOP( '', ( #180 ) );
#136 = EDGE_LOOP( '', ( #181 ) );
#137 = AXIS2_PLACEMENT_3D( '', #182, #183, #184 );
#138 = EDGE_LOOP( '', ( #185 ) );
#139 = EDGE_LOOP( '', ( #186 ) );
#140 = AXIS2_PLACEMENT_3D( '', #187, #188, #189 );
#141 = EDGE_LOOP( '', ( #190 ) );
#142 = EDGE_LOOP( '', ( #191 ) );
#143 = EDGE_LOOP( '', ( #192, #193, #194, #195 ) );
#144 = AXIS2_PLACEMENT_3D( '', #196, #197, #198 );
#145 = EDGE_LOOP( '', ( #199, #200, #201, #202, #203, #204 ) );
#146 = AXIS2_PLACEMENT_3D( '', #205, #206, #207 );
#147 = EDGE_LOOP( '', ( #208, #209, #210, #211 ) );
#148 = AXIS2_PLACEMENT_3D( '', #212, #213, #214 );
#149 = EDGE_LOOP( '', ( #215, #216, #217, #218 ) );
#150 = AXIS2_PLACEMENT_3D( '', #219, #220, #221 );
#151 = EDGE_LOOP( '', ( #222, #223, #224, #225 ) );
#152 = AXIS2_PLACEMENT_3D( '', #226, #227, #228 );
#153 = EDGE_LOOP( '', ( #229, #230, #231, #232 ) );
#154 = AXIS2_PLACEMENT_3D( '', #233, #234, #235 );
#155 = EDGE_LOOP( '', ( #236, #237, #238, #239, #240, #241 ) );
#156 = AXIS2_PLACEMENT_3D( '', #242, #243, #244 );
#157 = EDGE_LOOP( '', ( #245 ) );
#158 = EDGE_LOOP( '', ( #246 ) );
#159 = AXIS2_PLACEMENT_3D( '', #247, #248, #249 );
#160 = EDGE_LOOP( '', ( #250 ) );
#161 = EDGE_LOOP( '', ( #251 ) );
#162 = AXIS2_PLACEMENT_3D( '', #252, #253, #254 );
#163 = EDGE_LOOP( '', ( #255 ) );
#164 = EDGE_LOOP( '', ( #256 ) );
#165 = AXIS2_PLACEMENT_3D( '', #257, #258, #259 );
#166 = ORIENTED_EDGE( '', *, *, #260, .F. );
#167 = ORIENTED_EDGE( '', *, *, #261, .F. );
#168 = ORIENTED_EDGE( '', *, *, #262, .F. );
#169 = ORIENTED_EDGE( '', *, *, #263, .F. );
#170 = ORIENTED_EDGE( '', *, *, #264, .T. );
#171 = ORIENTED_EDGE( '', *, *, #265, .T. );
#172 = CARTESIAN_POINT( '', ( -24.0000000000000, 0.000000000000000, -100.000000000000 ) );
#173 = DIRECTION( '', ( 0.000000000000000, -1.00000000000000, 0.000000000000000 ) );
#174 = DIRECTION( '', ( 0.000000000000000, 0.000000000000000, -1.00000000000000 ) );
#175 = ORIENTED_EDGE( '', *, *, #261, .T. );
#176 = ORIENTED_EDGE( '', *, *, #266, .F. );
#177 = CARTESIAN_POINT( '', ( 0.000000000000000, -8.50745612739584E-016, -25.0000000000000 ) );
#178 = DIRECTION( '', ( -0.000000000000000, 1.00000000000000, 0.000000000000000 ) );
#179 = DIRECTION( '', ( 0.000000000000000, 0.000000000000000, -1.00000000000000 ) );
#180 = ORIENTED_EDGE( '', *, *, #266, .T. );
#181 = ORIENTED_EDGE( '', *, *, #267, .F. );
#182 = CARTESIAN_POINT( '', ( 0.000000000000000, 5.19999999999999, -30.5000000000000 ) );
#183 = DIRECTION( '', ( 0.000000000000000, 1.00000000000000, 0.000000000000000 ) );
#184 = DIRECTION( '', ( 0.000000000000000, -0.000000000000000, 1.00000000000000 ) );
#185 = ORIENTED_EDGE( '', *, *, #267, .T. );
#186 = ORIENTED_EDGE( '', *, *, #268, .F. );
#187 = CARTESIAN_POINT( '', ( 0.000000000000000, -8.50745612739584E-016, -25.0000000000000 ) );
#188 = DIRECTION( '', ( -0.000000000000000, 1.00000000000000, 0.000000000000000 ) );
#189 = DIRECTION( '', ( 0.000000000000000, 0.000000000000000, -1.00000000000000 ) );
#190 = ORIENTED_EDGE( '', *, *, #269, .T. );
#191 = ORIENTED_EDGE( '', *, *, #268, .T. );
#192 = ORIENTED_EDGE( '', *, *, #270, .F. );
#193 = ORIENTED_EDGE( '', *, *, #271, .F. );
#194 = ORIENTED_EDGE( '', *, *, #272, .T. );
#195 = ORIENTED_EDGE( '', *, *, #273, .T. );
#196 = CARTESIAN_POINT( '', ( 22.0000000000000, 10.0000000000000, -100.000000000000 ) );
#197 = DIRECTION( '', ( 0.000000000000000, 1.00000000000000, -0.000000000000000 ) );
#198 = DIRECTION( '', ( 0.000000000000000, 0.000000000000000, 1.00000000000000 ) );
#199 = ORIENTED_EDGE( '', *, *, #274, .F. );
#200 = ORIENTED_EDGE( '', *, *, #272, .F. );
#201 = ORIENTED_EDGE( '', *, *, #275, .F. );
#202 = ORIENTED_EDGE( '', *, *, #276, .F. );
#203 = ORIENTED_EDGE( '', *, *, #264, .F. );
#204 = ORIENTED_EDGE( '', *, *, #277, .F. );
#205 = CARTESIAN_POINT( '', ( -22.0000000000000, 8.00000000000000, -100.000000000000 ) );
#206 = DIRECTION( '', ( 0.000000000000000, 0.000000000000000, 1.00000000000000 ) );
#207 = DIRECTION( '', ( 1.00000000000000, 0.000000000000000, -0.000000000000000 ) );
#208 = ORIENTED_EDGE( '', *, *, #278, .F. );
#209 = ORIENTED_EDGE( '', *, *, #279, .F. );
#210 = ORIENTED_EDGE( '', *, *, #275, .T. );
#211 = ORIENTED_EDGE( '', *, *, #271, .T. );
#212 = CARTESIAN_POINT( '', ( 22.0000000000000, 8.00000000000000, -100.000000000000 ) );
#213 = DIRECTION( '', ( -0.000000000000000, -0.000000000000000, -1.00000000000000 ) );
#214 = DIRECTION( '', ( 1.00000000000000, 0.000000000000000, -0.000000000000000 ) );
#215 = ORIENTED_EDGE( '', *, *, #280, .F. );
#216 = ORIENTED_EDGE( '', *, *, #273, .F. );
#217 = ORIENTED_EDGE( '', *, *, #274, .T. );
#218 = ORIENTED_EDGE( '', *, *, #281, .T. );
#219 = CARTESIAN_POINT( '', ( -22.0000000000000, 8.00000000000000, -100.000000000000 ) );
#220 = DIRECTION( '', ( -0.000000000000000, -0.000000000000000, -1.00000000000000 ) );
#221 = DIRECTION( '', ( 1.00000000000000, 0.000000000000000, -0.000000000000000 ) );
#222 = ORIENTED_EDGE( '', *, *, #282, .F. );
#223 = ORIENTED_EDGE( '', *, *, #281, .F. );
#224 = ORIENTED_EDGE( '', *, *, #277, .T. );
#225 = ORIENTED_EDGE( '', *, *, #263, .T. );
#226 = CARTESIAN_POINT( '', ( -24.0000000000000, 8.00000000000000, -100.000000000000 ) );
#227 = DIRECTION( '', ( -1.00000000000000, 0.000000000000000, 0.000000000000000 ) );
#228 = DIRECTION( '', ( 0.000000000000000, 0.000000000000000, 1.00000000000000 ) );
#229 = ORIENTED_EDGE( '', *, *, #283, .F. );
#230 = ORIENTED_EDGE( '', *, *, #265, .F. );
#231 = ORIENTED_EDGE( '', *, *, #276, .T. );
#232 = ORIENTED_EDGE( '', *, *, #279, .T. );
#233 = CARTESIAN_POINT( '', ( 24.0000000000000, 0.000000000000000, -100.000000000000 ) );
#234 = DIRECTION( '', ( 1.00000000000000, 0.000000000000000, 0.000000000000000 ) );
#235 = DIRECTION( '', ( 0.000000000000000, 0.000000000000000, -1.00000000000000 ) );
#236 = ORIENTED_EDGE( '', *, *, #280, .T. );
#237 = ORIENTED_EDGE( '', *, *, #282, .T. );
#238 = ORIENTED_EDGE( '', *, *, #262, .T. );
#239 = ORIENTED_EDGE( '', *, *, #283, .T. );
#240 = ORIENTED_EDGE( '', *, *, #278, .T. );
#241 = ORIENTED_EDGE( '', *, *, #270, .T. );
#242 = CARTESIAN_POINT( '', ( -22.0000000000000, 8.00000000000000, 0.000000000000000 ) );
#243 = DIRECTION( '', ( 0.000000000000000, 0.000000000000000, 1.00000000000000 ) );
#244 = DIRECTION( '', ( 1.00000000000000, 0.000000000000000, -0.000000000000000 ) );
#245 = ORIENTED_EDGE( '', *, *, #284, .T. );
#246 = ORIENTED_EDGE( '', *, *, #269, .F. );
#247 = CARTESIAN_POINT( '', ( 0.000000000000000, -8.65333612334494E-016, -75.0000000000000 ) );
#248 = DIRECTION( '', ( -0.000000000000000, 1.00000000000000, 0.000000000000000 ) );
#249 = DIRECTION( '', ( 0.000000000000000, 0.000000000000000, -1.00000000000000 ) );
#250 = ORIENTED_EDGE( '', *, *, #285, .T. );
#251 = ORIENTED_EDGE( '', *, *, #284, .F. );
#252 = CARTESIAN_POINT( '', ( 0.000000000000000, 5.19999999999999, -80.5000000000000 ) );
#253 = DIRECTION( '', ( 0.000000000000000, 1.00000000000000, 0.000000000000000 ) );
#254 = DIRECTION( '', ( 0.000000000000000, -0.000000000000000, 1.00000000000000 ) );
#255 = ORIENTED_EDGE( '', *, *, #260, .T. );
#256 = ORIENTED_EDGE( '', *, *, #285, .F. );
#257 = CARTESIAN_POINT( '', ( 0.000000000000000, -8.65333612334494E-016, -75.0000000000000 ) );
#258 = DIRECTION( '', ( -0.000000000000000, 1.00000000000000, 0.000000000000000 ) );
#259 = DIRECTION( '', ( 0.000000000000000, 0.000000000000000, -1.00000000000000 ) );
#260 = EDGE_CURVE( '', #286, #286, #287, .T. );
#261 = EDGE_CURVE( '', #288, #288, #289, .T. );
#262 = EDGE_CURVE( '', #290, #291, #292, .T. );
#263 = EDGE_CURVE( '', #293, #290, #294, .T. );
#264 = EDGE_CURVE( '', #293, #295, #296, .T. );
#265 = EDGE_CURVE( '', #295, #291, #297, .T. );
#266 = EDGE_CURVE( '', #298, #298, #299, .T. );
#267 = EDGE_CURVE( '', #300, #300, #301, .T. );
#268 = EDGE_CURVE( '', #302, #302, #303, .T. );
#269 = EDGE_CURVE( '', #304, #304, #305, .T. );
#270 = EDGE_CURVE( '', #306, #307, #308, .T. );
#271 = EDGE_CURVE( '', #309, #306, #310, .T. );
#272 = EDGE_CURVE( '', #309, #311, #312, .T. );
#273 = EDGE_CURVE( '', #311, #307, #313, .T. );
#274 = EDGE_CURVE( '', #311, #314, #315, .T. );
#275 = EDGE_CURVE( '', #316, #309, #317, .T. );
#276 = EDGE_CURVE( '', #295, #316, #318, .T. );
#277 = EDGE_CURVE( '', #314, #293, #319, .T. );
#278 = EDGE_CURVE( '', #320, #306, #321, .T. );
#279 = EDGE_CURVE( '', #316, #320, #322, .T. );
#280 = EDGE_CURVE( '', #307, #323, #324, .T. );
#281 = EDGE_CURVE( '', #314, #323, #325, .T. );
#282 = EDGE_CURVE( '', #323, #290, #326, .T. );
#283 = EDGE_CURVE( '', #291, #320, #327, .T. );
#284 = EDGE_CURVE( '', #328, #328, #329, .T. );
#285 = EDGE_CURVE( '', #330, #330, #331, .T. );
#286 = VERTEX_POINT( '', #332 );
#287 = CIRCLE( '', #333, 3.30000000000000 );
#288 = VERTEX_POINT( '', #334 );
#289 = CIRCLE( '', #335, 3.30000000000000 );
#290 = VERTEX_POINT( '', #336 );
#291 = VERTEX_POINT( '', #337 );
#292 = LINE( '', #338, #339 );
#293 = VERTEX_POINT( '', #340 );
#294 = LINE( '', #341, #342 );
#295 = VERTEX_POINT( '', #343 );
#296 = LINE( '', #344, #345 );
#297 = LINE( '', #346, #347 );
#298 = VERTEX_POINT( '', #348 );
#299 = CIRCLE( '', #349, 3.30000000000000 );
#300 = VERTEX_POINT( '', #350 );
#301 = CIRCLE( '', #351, 5.50000000000000 );
#302 = VERTEX_POINT( '', #352 );
#303 = CIRCLE( '', #353, 5.50000000000000 );
#304 = VERTEX_POINT( '', #354 );
#305 = CIRCLE( '', #355, 5.50000000000001 );
#306 = VERTEX_POINT( '', #356 );
#307 = VERTEX_POINT( '', #357 );
#308 = LINE( '', #358, #359 );
#309 = VERTEX_POINT( '', #360 );
#310 = LINE( '', #361, #362 );
#311 = VERTEX_POINT( '', #363 );
#312 = LINE( '', #364, #365 );
#313 = LINE( '', #366, #367 );
#314 = VERTEX_POINT( '', #368 );
#315 = CIRCLE( '', #369, 2.00000000000000 );
#316 = VERTEX_POINT( '', #370 );
#317 = CIRCLE( '', #371, 2.00000000000001 );
#318 = LINE( '', #372, #373 );
#319 = LINE( '', #374, #375 );
#320 = VERTEX_POINT( '', #376 );
#321 = CIRCLE( '', #377, 2.00000000000001 );
#322 = LINE( '', #378, #379 );
#323 = VERTEX_POINT( '', #380 );
#324 = CIRCLE( '', #381, 2.00000000000000 );
#325 = LINE( '', #382, #383 );
#326 = LINE( '', #384, #385 );
#327 = LINE( '', #386, #387 );
#328 = VERTEX_POINT( '', #388 );
#329 = CIRCLE( '', #389, 5.50000000000001 );
#330 = VERTEX_POINT( '', #390 );
#331 = CIRCLE( '', #391, 3.30000000000000 );
#332 = CARTESIAN_POINT( '', ( 0.000000000000000, -8.67361737988404E-016, -78.3000000000000 ) );
#333 = AXIS2_PLACEMENT_3D( '', #392, #393, #394 );
#334 = CARTESIAN_POINT( '', ( 0.000000000000000, -8.67361737988404E-016, -28.3000000000000 ) );
#335 = AXIS2_PLACEMENT_3D( '', #395, #396, #397 );
#336 = CARTESIAN_POINT( '', ( -24.0000000000000, 0.000000000000000, 0.000000000000000 ) );
#337 = CARTESIAN_POINT( '', ( 24.0000000000000, 0.000000000000000, 0.000000000000000 ) );
#338 = CARTESIAN_POINT( '', ( -24.0000000000000, 0.000000000000000, 0.000000000000000 ) );
#339 = VECTOR( '', #398, 1000.00000000000 );
#340 = CARTESIAN_POINT( '', ( -24.0000000000000, 0.000000000000000, -100.000000000000 ) );
#341 = CARTESIAN_POINT( '', ( -24.0000000000000, 0.000000000000000, -100.000000000000 ) );
#342 = VECTOR( '', #399, 1000.00000000000 );
#343 = CARTESIAN_POINT( '', ( 24.0000000000000, 0.000000000000000, -100.000000000000 ) );
#344 = CARTESIAN_POINT( '', ( -24.0000000000000, 0.000000000000000, -100.000000000000 ) );
#345 = VECTOR( '', #400, 1000.00000000000 );
#346 = CARTESIAN_POINT( '', ( 24.0000000000000, 0.000000000000000, -100.000000000000 ) );
#347 = VECTOR( '', #401, 1000.00000000000 );
#348 = CARTESIAN_POINT( '', ( 0.000000000000000, 5.19999999999999, -28.3000000000000 ) );
#349 = AXIS2_PLACEMENT_3D( '', #402, #403, #404 );
#350 = CARTESIAN_POINT( '', ( 0.000000000000000, 5.19999999999999, -30.5000000000000 ) );
#351 = AXIS2_PLACEMENT_3D( '', #405, #406, #407 );
#352 = CARTESIAN_POINT( '', ( 0.000000000000000, 10.0000000000000, -30.5000000000000 ) );
#353 = AXIS2_PLACEMENT_3D( '', #408, #409, #410 );
#354 = CARTESIAN_POINT( '', ( 0.000000000000000, 10.0000000000000, -80.5000000000000 ) );
#355 = AXIS2_PLACEMENT_3D( '', #411, #412, #413 );
#356 = CARTESIAN_POINT( '', ( 22.0000000000000, 10.0000000000000, 0.000000000000000 ) );
#357 = CARTESIAN_POINT( '', ( -22.0000000000000, 10.0000000000000, 0.000000000000000 ) );
#358 = CARTESIAN_POINT( '', ( 22.0000000000000, 10.0000000000000, 0.000000000000000 ) );
#359 = VECTOR( '', #414, 1000.00000000000 );
#360 = CARTESIAN_POINT( '', ( 22.0000000000000, 10.0000000000000, -100.000000000000 ) );
#361 = CARTESIAN_POINT( '', ( 22.0000000000000, 10.0000000000000, -100.000000000000 ) );
#362 = VECTOR( '', #415, 1000.00000000000 );
#363 = CARTESIAN_POINT( '', ( -22.0000000000000, 10.0000000000000, -100.000000000000 ) );
#364 = CARTESIAN_POINT( '', ( 22.0000000000000, 10.0000000000000, -100.000000000000 ) );
#365 = VECTOR( '', #416, 1000.00000000000 );
#366 = CARTESIAN_POINT( '', ( -22.0000000000000, 10.0000000000000, -100.000000000000 ) );
#367 = VECTOR( '', #417, 1000.00000000000 );
#368 = CARTESIAN_POINT( '', ( -24.0000000000000, 8.00000000000000, -100.000000000000 ) );
#369 = AXIS2_PLACEMENT_3D( '', #418, #419, #420 );
#370 = CARTESIAN_POINT( '', ( 24.0000000000000, 8.00000000000000, -100.000000000000 ) );
#371 = AXIS2_PLACEMENT_3D( '', #421, #422, #423 );
#372 = CARTESIAN_POINT( '', ( 24.0000000000000, 0.000000000000000, -100.000000000000 ) );
#373 = VECTOR( '', #424, 1000.00000000000 );
#374 = CARTESIAN_POINT( '', ( -24.0000000000000, 8.00000000000000, -100.000000000000 ) );
#375 = VECTOR( '', #425, 1000.00000000000 );
#376 = CARTESIAN_POINT( '', ( 24.0000000000000, 8.00000000000000, 0.000000000000000 ) );
#377 = AXIS2_PLACEMENT_3D( '', #426, #427, #428 );
#378 = CARTESIAN_POINT( '', ( 24.0000000000000, 8.00000000000000, -100.000000000000 ) );
#379 = VECTOR( '', #429, 1000.00000000000 );
#380 = CARTESIAN_POINT( '', ( -24.0000000000000, 8.00000000000000, 0.000000000000000 ) );
#381 = AXIS2_PLACEMENT_3D( '', #430, #431, #432 );
#382 = CARTESIAN_POINT( '', ( -24.0000000000000, 8.00000000000000, -100.000000000000 ) );
#383 = VECTOR( '', #433, 1000.00000000000 );
#384 = CARTESIAN_POINT( '', ( -24.0000000000000, 8.00000000000000, 0.000000000000000 ) );
#385 = VECTOR( '', #434, 1000.00000000000 );
#386 = CARTESIAN_POINT( '', ( 24.0000000000000, 0.000000000000000, 0.000000000000000 ) );
#387 = VECTOR( '', #435, 1000.00000000000 );
#388 = CARTESIAN_POINT( '', ( 0.000000000000000, 5.19999999999999, -80.5000000000000 ) );
#389 = AXIS2_PLACEMENT_3D( '', #436, #437, #438 );
#390 = CARTESIAN_POINT( '', ( 0.000000000000000, 5.19999999999999, -78.3000000000000 ) );
#391 = AXIS2_PLACEMENT_3D( '', #439, #440, #441 );
#392 = CARTESIAN_POINT( '', ( 0.000000000000000, -8.67361737988404E-016, -75.0000000000000 ) );
#393 = DIRECTION( '', ( 0.000000000000000, -1.00000000000000, -0.000000000000000 ) );
#394 = DIRECTION( '', ( 0.000000000000000, 0.000000000000000, -1.00000000000000 ) );
#395 = CARTESIAN_POINT( '', ( 0.000000000000000, -8.67361737988404E-016, -25.0000000000000 ) );
#396 = DIRECTION( '', ( 0.000000000000000, -1.00000000000000, -0.000000000000000 ) );
#397 = DIRECTION( '', ( 0.000000000000000, 0.000000000000000, -1.00000000000000 ) );
#398 = DIRECTION( '', ( 1.00000000000000, 0.000000000000000, 0.000000000000000 ) );
#399 = DIRECTION( '', ( 0.000000000000000, 0.000000000000000, 1.00000000000000 ) );
#400 = DIRECTION( '', ( 1.00000000000000, 0.000000000000000, 0.000000000000000 ) );
#401 = DIRECTION( '', ( 0.000000000000000, 0.000000000000000, 1.00000000000000 ) );
#402 = CARTESIAN_POINT( '', ( 0.000000000000000, 5.19999999999999, -25.0000000000000 ) );
#403 = DIRECTION( '', ( 0.000000000000000, -1.00000000000000, -0.000000000000000 ) );
#404 = DIRECTION( '', ( 0.000000000000000, 0.000000000000000, -1.00000000000000 ) );
#405 = CARTESIAN_POINT( '', ( 0.000000000000000, 5.19999999999999, -25.0000000000000 ) );
#406 = DIRECTION( '', ( 0.000000000000000, -1.00000000000000, -0.000000000000000 ) );
#407 = DIRECTION( '', ( 0.000000000000000, 0.000000000000000, -1.00000000000000 ) );
#408 = CARTESIAN_POINT( '', ( 0.000000000000000, 10.0000000000000, -25.0000000000000 ) );
#409 = DIRECTION( '', ( 0.000000000000000, -1.00000000000000, -0.000000000000000 ) );
#410 = DIRECTION( '', ( 0.000000000000000, 0.000000000000000, -1.00000000000000 ) );
#411 = CARTESIAN_POINT( '', ( 0.000000000000000, 10.0000000000000, -75.0000000000000 ) );
#412 = DIRECTION( '', ( 0.000000000000000, -1.00000000000000, -0.000000000000000 ) );
#413 = DIRECTION( '', ( 0.000000000000000, 0.000000000000000, -1.00000000000000 ) );
#414 = DIRECTION( '', ( -1.00000000000000, 0.000000000000000, 0.000000000000000 ) );
#415 = DIRECTION( '', ( 0.000000000000000, 0.000000000000000, 1.00000000000000 ) );
#416 = DIRECTION( '', ( -1.00000000000000, 0.000000000000000, 0.000000000000000 ) );
#417 = DIRECTION( '', ( 0.000000000000000, 0.000000000000000, 1.00000000000000 ) );
#418 = CARTESIAN_POINT( '', ( -22.0000000000000, 8.00000000000000, -100.000000000000 ) );
#419 = DIRECTION( '', ( 0.000000000000000, 0.000000000000000, 1.00000000000000 ) );
#420 = DIRECTION( '', ( 1.00000000000000, 0.000000000000000, 0.000000000000000 ) );
#421 = CARTESIAN_POINT( '', ( 22.0000000000000, 8.00000000000000, -100.000000000000 ) );
#422 = DIRECTION( '', ( 0.000000000000000, 0.000000000000000, 1.00000000000000 ) );
#423 = DIRECTION( '', ( 1.00000000000000, 0.000000000000000, 0.000000000000000 ) );
#424 = DIRECTION( '', ( 0.000000000000000, 1.00000000000000, 0.000000000000000 ) );
#425 = DIRECTION( '', ( 0.000000000000000, -1.00000000000000, 0.000000000000000 ) );
#426 = CARTESIAN_POINT( '', ( 22.0000000000000, 8.00000000000000, 0.000000000000000 ) );
#427 = DIRECTION( '', ( 0.000000000000000, 0.000000000000000, 1.00000000000000 ) );
#428 = DIRECTION( '', ( 1.00000000000000, 0.000000000000000, 0.000000000000000 ) );
#429 = DIRECTION( '', ( 0.000000000000000, 0.000000000000000, 1.00000000000000 ) );
#430 = CARTESIAN_POINT( '', ( -22.0000000000000, 8.00000000000000, 0.000000000000000 ) );
#431 = DIRECTION( '', ( 0.000000000000000, 0.000000000000000, 1.00000000000000 ) );
#432 = DIRECTION( '', ( 1.00000000000000, 0.000000000000000, 0.000000000000000 ) );
#433 = DIRECTION( '', ( 0.000000000000000, 0.000000000000000, 1.00000000000000 ) );
#434 = DIRECTION( '', ( 0.000000000000000, -1.00000000000000, 0.000000000000000 ) );
#435 = DIRECTION( '', ( 0.000000000000000, 1.00000000000000, 0.000000000000000 ) );
#436 = CARTESIAN_POINT( '', ( 0.000000000000000, 5.19999999999999, -75.0000000000000 ) );
#437 = DIRECTION( '', ( 0.000000000000000, -1.00000000000000, -0.000000000000000 ) );
#438 = DIRECTION( '', ( 0.000000000000000, 0.000000000000000, -1.00000000000000 ) );
#439 = CARTESIAN_POINT( '', ( 0.000000000000000, 5.19999999999999, -75.0000000000000 ) );
#440 = DIRECTION( '', ( 0.000000000000000, -1.00000000000000, -0.000000000000000 ) );
#441 = DIRECTION( '', ( 0.000000000000000, 0.000000000000000, -1.00000000000000 ) );
ENDSEC;
END-ISO-10303-21;
