ISO-10303-21;
HEADER;
/* Generated by software containing ST-Developer
 * from STEP Tools, Inc. (www.steptools.com) 
 */
/* OPTION: using custom renumber hook */

FILE_DESCRIPTION(
/* description */ ('STEP AP214'),
/* implementation_level */ '2;1');

FILE_NAME(
/* name */ 'C01220125',
/* time_stamp */ '2023-07-05T16:43:08+02:00',
/* author */ ('License CC BY-ND 4.0'),
/* organization */ ('CADENAS'),
/* preprocessor_version */ 'ST-DEVELOPER v19.3',
/* originating_system */ 'PARTsolutions',
/* authorisation */ '  ');

FILE_SCHEMA (('AUTOMOTIVE_DESIGN {1 0 10303 214 3 1 1}'));
ENDSEC;

DATA;
#10=PROPERTY_DEFINITION_REPRESENTATION(#14,#12);
#11=PROPERTY_DEFINITION_REPRESENTATION(#15,#13);
#12=REPRESENTATION('',(#16),#314);
#13=REPRESENTATION('',(#17),#314);
#14=PROPERTY_DEFINITION('pmi validation property','',#319);
#15=PROPERTY_DEFINITION('pmi validation property','',#319);
#16=VALUE_REPRESENTATION_ITEM('number of annotations',COUNT_MEASURE(0.));
#17=VALUE_REPRESENTATION_ITEM('number of views',COUNT_MEASURE(0.));
#18=SHAPE_REPRESENTATION_RELATIONSHIP('','',#214,#19);
#19=ADVANCED_BREP_SHAPE_REPRESENTATION('',(#212),#314);
#20=TOROIDAL_SURFACE('',#234,6.85765086945537,1.99999999999996);
#21=CYLINDRICAL_SURFACE('',#220,12.);
#22=CYLINDRICAL_SURFACE('',#226,9.5);
#23=CYLINDRICAL_SURFACE('',#230,10.);
#24=CONICAL_SURFACE('',#218,11.5,0.785398163397448);
#25=CONICAL_SURFACE('',#222,12.,0.785398163397448);
#26=CONICAL_SURFACE('',#228,9.5,0.523598775598304);
#27=CONICAL_SURFACE('',#232,10.,0.261799387799149);
#28=ORIENTED_EDGE('',*,*,#48,.F.);
#29=ORIENTED_EDGE('',*,*,#49,.F.);
#30=ORIENTED_EDGE('',*,*,#48,.T.);
#31=ORIENTED_EDGE('',*,*,#50,.F.);
#32=ORIENTED_EDGE('',*,*,#49,.T.);
#33=ORIENTED_EDGE('',*,*,#51,.F.);
#34=ORIENTED_EDGE('',*,*,#50,.T.);
#35=ORIENTED_EDGE('',*,*,#52,.F.);
#36=ORIENTED_EDGE('',*,*,#51,.T.);
#37=ORIENTED_EDGE('',*,*,#53,.F.);
#38=ORIENTED_EDGE('',*,*,#52,.T.);
#39=ORIENTED_EDGE('',*,*,#54,.F.);
#40=ORIENTED_EDGE('',*,*,#53,.T.);
#41=ORIENTED_EDGE('',*,*,#55,.F.);
#42=ORIENTED_EDGE('',*,*,#54,.T.);
#43=ORIENTED_EDGE('',*,*,#56,.F.);
#44=ORIENTED_EDGE('',*,*,#55,.T.);
#45=ORIENTED_EDGE('',*,*,#56,.T.);
#46=ORIENTED_EDGE('',*,*,#57,.F.);
#47=ORIENTED_EDGE('',*,*,#57,.T.);
#48=EDGE_CURVE('',#58,#58,#68,.T.);
#49=EDGE_CURVE('',#59,#59,#69,.T.);
#50=EDGE_CURVE('',#60,#60,#70,.T.);
#51=EDGE_CURVE('',#61,#61,#71,.T.);
#52=EDGE_CURVE('',#62,#62,#72,.T.);
#53=EDGE_CURVE('',#63,#63,#73,.T.);
#54=EDGE_CURVE('',#64,#64,#74,.T.);
#55=EDGE_CURVE('',#65,#65,#75,.T.);
#56=EDGE_CURVE('',#66,#66,#76,.T.);
#57=EDGE_CURVE('',#67,#67,#77,.T.);
#58=VERTEX_POINT('',#284);
#59=VERTEX_POINT('',#287);
#60=VERTEX_POINT('',#290);
#61=VERTEX_POINT('',#293);
#62=VERTEX_POINT('',#296);
#63=VERTEX_POINT('',#299);
#64=VERTEX_POINT('',#302);
#65=VERTEX_POINT('',#305);
#66=VERTEX_POINT('',#308);
#67=VERTEX_POINT('',#311);
#68=CIRCLE('',#217,11.5);
#69=CIRCLE('',#219,12.);
#70=CIRCLE('',#221,12.);
#71=CIRCLE('',#223,11.5);
#72=CIRCLE('',#225,9.5);
#73=CIRCLE('',#227,9.5);
#74=CIRCLE('',#229,10.);
#75=CIRCLE('',#231,10.);
#76=CIRCLE('',#233,8.78950252203348);
#77=CIRCLE('',#235,6.85765086945534);
#78=EDGE_LOOP('',(#28));
#79=EDGE_LOOP('',(#29));
#80=EDGE_LOOP('',(#30));
#81=EDGE_LOOP('',(#31));
#82=EDGE_LOOP('',(#32));
#83=EDGE_LOOP('',(#33));
#84=EDGE_LOOP('',(#34));
#85=EDGE_LOOP('',(#35));
#86=EDGE_LOOP('',(#36));
#87=EDGE_LOOP('',(#37));
#88=EDGE_LOOP('',(#38));
#89=EDGE_LOOP('',(#39));
#90=EDGE_LOOP('',(#40));
#91=EDGE_LOOP('',(#41));
#92=EDGE_LOOP('',(#42));
#93=EDGE_LOOP('',(#43));
#94=EDGE_LOOP('',(#44));
#95=EDGE_LOOP('',(#45));
#96=EDGE_LOOP('',(#46));
#97=EDGE_LOOP('',(#47));
#98=FACE_BOUND('',#78,.T.);
#99=FACE_BOUND('',#79,.T.);
#100=FACE_BOUND('',#80,.T.);
#101=FACE_BOUND('',#81,.T.);
#102=FACE_BOUND('',#82,.T.);
#103=FACE_BOUND('',#83,.T.);
#104=FACE_BOUND('',#84,.T.);
#105=FACE_BOUND('',#85,.T.);
#106=FACE_BOUND('',#86,.T.);
#107=FACE_BOUND('',#87,.T.);
#108=FACE_BOUND('',#88,.T.);
#109=FACE_BOUND('',#89,.T.);
#110=FACE_BOUND('',#90,.T.);
#111=FACE_BOUND('',#91,.T.);
#112=FACE_BOUND('',#92,.T.);
#113=FACE_BOUND('',#93,.T.);
#114=FACE_BOUND('',#94,.T.);
#115=FACE_BOUND('',#95,.T.);
#116=FACE_BOUND('',#96,.T.);
#117=FACE_BOUND('',#97,.T.);
#118=PLANE('',#216);
#119=PLANE('',#224);
#120=PLANE('',#236);
#121=STYLED_ITEM('',(#132),#200);
#122=STYLED_ITEM('',(#133),#201);
#123=STYLED_ITEM('',(#134),#202);
#124=STYLED_ITEM('',(#135),#203);
#125=STYLED_ITEM('',(#136),#204);
#126=STYLED_ITEM('',(#137),#205);
#127=STYLED_ITEM('',(#138),#206);
#128=STYLED_ITEM('',(#139),#207);
#129=STYLED_ITEM('',(#140),#208);
#130=STYLED_ITEM('',(#141),#209);
#131=STYLED_ITEM('',(#142),#210);
#132=PRESENTATION_STYLE_ASSIGNMENT((#143));
#133=PRESENTATION_STYLE_ASSIGNMENT((#144));
#134=PRESENTATION_STYLE_ASSIGNMENT((#145));
#135=PRESENTATION_STYLE_ASSIGNMENT((#146));
#136=PRESENTATION_STYLE_ASSIGNMENT((#147));
#137=PRESENTATION_STYLE_ASSIGNMENT((#148));
#138=PRESENTATION_STYLE_ASSIGNMENT((#149));
#139=PRESENTATION_STYLE_ASSIGNMENT((#150));
#140=PRESENTATION_STYLE_ASSIGNMENT((#151));
#141=PRESENTATION_STYLE_ASSIGNMENT((#152));
#142=PRESENTATION_STYLE_ASSIGNMENT((#153));
#143=SURFACE_STYLE_USAGE(.BOTH.,#154);
#144=SURFACE_STYLE_USAGE(.BOTH.,#155);
#145=SURFACE_STYLE_USAGE(.BOTH.,#156);
#146=SURFACE_STYLE_USAGE(.BOTH.,#157);
#147=SURFACE_STYLE_USAGE(.BOTH.,#158);
#148=SURFACE_STYLE_USAGE(.BOTH.,#159);
#149=SURFACE_STYLE_USAGE(.BOTH.,#160);
#150=SURFACE_STYLE_USAGE(.BOTH.,#161);
#151=SURFACE_STYLE_USAGE(.BOTH.,#162);
#152=SURFACE_STYLE_USAGE(.BOTH.,#163);
#153=SURFACE_STYLE_USAGE(.BOTH.,#164);
#154=SURFACE_SIDE_STYLE('',(#165));
#155=SURFACE_SIDE_STYLE('',(#166));
#156=SURFACE_SIDE_STYLE('',(#167));
#157=SURFACE_SIDE_STYLE('',(#168));
#158=SURFACE_SIDE_STYLE('',(#169));
#159=SURFACE_SIDE_STYLE('',(#170));
#160=SURFACE_SIDE_STYLE('',(#171));
#161=SURFACE_SIDE_STYLE('',(#172));
#162=SURFACE_SIDE_STYLE('',(#173));
#163=SURFACE_SIDE_STYLE('',(#174));
#164=SURFACE_SIDE_STYLE('',(#175));
#165=SURFACE_STYLE_FILL_AREA(#176);
#166=SURFACE_STYLE_FILL_AREA(#177);
#167=SURFACE_STYLE_FILL_AREA(#178);
#168=SURFACE_STYLE_FILL_AREA(#179);
#169=SURFACE_STYLE_FILL_AREA(#180);
#170=SURFACE_STYLE_FILL_AREA(#181);
#171=SURFACE_STYLE_FILL_AREA(#182);
#172=SURFACE_STYLE_FILL_AREA(#183);
#173=SURFACE_STYLE_FILL_AREA(#184);
#174=SURFACE_STYLE_FILL_AREA(#185);
#175=SURFACE_STYLE_FILL_AREA(#186);
#176=FILL_AREA_STYLE('',(#187));
#177=FILL_AREA_STYLE('',(#188));
#178=FILL_AREA_STYLE('',(#189));
#179=FILL_AREA_STYLE('',(#190));
#180=FILL_AREA_STYLE('',(#191));
#181=FILL_AREA_STYLE('',(#192));
#182=FILL_AREA_STYLE('',(#193));
#183=FILL_AREA_STYLE('',(#194));
#184=FILL_AREA_STYLE('',(#195));
#185=FILL_AREA_STYLE('',(#196));
#186=FILL_AREA_STYLE('',(#197));
#187=FILL_AREA_STYLE_COLOUR('',#198);
#188=FILL_AREA_STYLE_COLOUR('',#198);
#189=FILL_AREA_STYLE_COLOUR('',#198);
#190=FILL_AREA_STYLE_COLOUR('',#198);
#191=FILL_AREA_STYLE_COLOUR('',#198);
#192=FILL_AREA_STYLE_COLOUR('',#198);
#193=FILL_AREA_STYLE_COLOUR('',#198);
#194=FILL_AREA_STYLE_COLOUR('',#199);
#195=FILL_AREA_STYLE_COLOUR('',#198);
#196=FILL_AREA_STYLE_COLOUR('',#198);
#197=FILL_AREA_STYLE_COLOUR('',#198);
#198=COLOUR_RGB('',0.40000000596046,0.40000000596046,0.40000000596046);
#199=COLOUR_RGB('',0.689999997615814,0.689999997615814,0.689999997615814);
#200=ADVANCED_FACE('',(#98),#118,.F.);
#201=ADVANCED_FACE('',(#99,#100),#24,.T.);
#202=ADVANCED_FACE('',(#101,#102),#21,.T.);
#203=ADVANCED_FACE('',(#103,#104),#25,.T.);
#204=ADVANCED_FACE('',(#105,#106),#119,.F.);
#205=ADVANCED_FACE('',(#107,#108),#22,.T.);
#206=ADVANCED_FACE('',(#109,#110),#26,.T.);
#207=ADVANCED_FACE('',(#111,#112),#23,.T.);
#208=ADVANCED_FACE('',(#113,#114),#27,.T.);
#209=ADVANCED_FACE('',(#115,#116),#20,.T.);
#210=ADVANCED_FACE('',(#117),#120,.F.);
#211=CLOSED_SHELL('',(#200,#201,#202,#203,#204,#205,#206,#207,#208,#209,
#210));
#212=MANIFOLD_SOLID_BREP('C01220125',#211);
#213=SHAPE_DEFINITION_REPRESENTATION(#319,#214);
#214=SHAPE_REPRESENTATION('C01220125',(#215),#314);
#215=AXIS2_PLACEMENT_3D('',#281,#237,#238);
#216=AXIS2_PLACEMENT_3D('',#282,#239,#240);
#217=AXIS2_PLACEMENT_3D('',#283,#241,#242);
#218=AXIS2_PLACEMENT_3D('',#285,#243,#244);
#219=AXIS2_PLACEMENT_3D('',#286,#245,#246);
#220=AXIS2_PLACEMENT_3D('',#288,#247,#248);
#221=AXIS2_PLACEMENT_3D('',#289,#249,#250);
#222=AXIS2_PLACEMENT_3D('',#291,#251,#252);
#223=AXIS2_PLACEMENT_3D('',#292,#253,#254);
#224=AXIS2_PLACEMENT_3D('',#294,#255,#256);
#225=AXIS2_PLACEMENT_3D('',#295,#257,#258);
#226=AXIS2_PLACEMENT_3D('',#297,#259,#260);
#227=AXIS2_PLACEMENT_3D('',#298,#261,#262);
#228=AXIS2_PLACEMENT_3D('',#300,#263,#264);
#229=AXIS2_PLACEMENT_3D('',#301,#265,#266);
#230=AXIS2_PLACEMENT_3D('',#303,#267,#268);
#231=AXIS2_PLACEMENT_3D('',#304,#269,#270);
#232=AXIS2_PLACEMENT_3D('',#306,#271,#272);
#233=AXIS2_PLACEMENT_3D('',#307,#273,#274);
#234=AXIS2_PLACEMENT_3D('',#309,#275,#276);
#235=AXIS2_PLACEMENT_3D('',#310,#277,#278);
#236=AXIS2_PLACEMENT_3D('',#312,#279,#280);
#237=DIRECTION('',(0.,0.,1.));
#238=DIRECTION('',(1.,0.,0.));
#239=DIRECTION('',(1.,0.,0.));
#240=DIRECTION('',(0.,0.,-1.));
#241=DIRECTION('',(1.,0.,0.));
#242=DIRECTION('',(0.,0.,-1.));
#243=DIRECTION('',(1.,0.,0.));
#244=DIRECTION('',(0.,0.,-1.));
#245=DIRECTION('',(1.,0.,0.));
#246=DIRECTION('',(0.,0.,-1.));
#247=DIRECTION('',(1.,0.,0.));
#248=DIRECTION('',(0.,0.,-1.));
#249=DIRECTION('',(1.,0.,0.));
#250=DIRECTION('',(0.,0.,-1.));
#251=DIRECTION('',(-1.,0.,0.));
#252=DIRECTION('',(0.,0.,1.));
#253=DIRECTION('',(1.,0.,0.));
#254=DIRECTION('',(0.,0.,-1.));
#255=DIRECTION('',(-1.,0.,0.));
#256=DIRECTION('',(0.,0.,1.));
#257=DIRECTION('',(1.,0.,0.));
#258=DIRECTION('',(0.,0.,-1.));
#259=DIRECTION('',(1.,0.,0.));
#260=DIRECTION('',(0.,0.,-1.));
#261=DIRECTION('',(1.,0.,0.));
#262=DIRECTION('',(0.,0.,-1.));
#263=DIRECTION('',(1.,0.,0.));
#264=DIRECTION('',(0.,0.,-1.));
#265=DIRECTION('',(1.,0.,0.));
#266=DIRECTION('',(0.,0.,-1.));
#267=DIRECTION('',(1.,0.,0.));
#268=DIRECTION('',(0.,0.,-1.));
#269=DIRECTION('',(1.,0.,0.));
#270=DIRECTION('',(0.,0.,-1.));
#271=DIRECTION('',(-1.,0.,0.));
#272=DIRECTION('',(0.,0.,1.));
#273=DIRECTION('',(1.,0.,0.));
#274=DIRECTION('',(0.,0.,-1.));
#275=DIRECTION('',(1.,0.,0.));
#276=DIRECTION('',(0.,0.,-1.));
#277=DIRECTION('',(1.,0.,0.));
#278=DIRECTION('',(0.,0.,-1.));
#279=DIRECTION('',(-1.,0.,0.));
#280=DIRECTION('',(0.,0.,1.));
#281=CARTESIAN_POINT('',(0.,0.,0.));
#282=CARTESIAN_POINT('',(0.,0.,0.));
#283=CARTESIAN_POINT('',(0.,0.,0.));
#284=CARTESIAN_POINT('',(0.,0.,-11.5));
#285=CARTESIAN_POINT('',(0.,0.,0.));
#286=CARTESIAN_POINT('',(0.5,0.,0.));
#287=CARTESIAN_POINT('',(0.5,0.,-12.));
#288=CARTESIAN_POINT('',(125.,0.,0.));
#289=CARTESIAN_POINT('',(5.50000000000001,0.,0.));
#290=CARTESIAN_POINT('',(5.50000000000001,0.,-12.));
#291=CARTESIAN_POINT('',(5.50000000000001,0.,0.));
#292=CARTESIAN_POINT('',(6.00000000000001,0.,0.));
#293=CARTESIAN_POINT('',(6.00000000000001,0.,-11.5));
#294=CARTESIAN_POINT('',(6.,11.5,0.));
#295=CARTESIAN_POINT('',(6.00000000000001,0.,0.));
#296=CARTESIAN_POINT('',(6.00000000000001,0.,-9.5));
#297=CARTESIAN_POINT('',(125.,0.,0.));
#298=CARTESIAN_POINT('',(8.00000000000001,0.,0.));
#299=CARTESIAN_POINT('',(8.00000000000001,0.,-9.5));
#300=CARTESIAN_POINT('',(8.00000000000001,0.,0.));
#301=CARTESIAN_POINT('',(8.86602540378444,0.,0.));
#302=CARTESIAN_POINT('',(8.86602540378444,0.,-10.));
#303=CARTESIAN_POINT('',(125.,0.,0.));
#304=CARTESIAN_POINT('',(119.,0.,0.));
#305=CARTESIAN_POINT('',(119.,0.,-10.));
#306=CARTESIAN_POINT('',(119.,0.,0.));
#307=CARTESIAN_POINT('',(123.517638090205,0.,0.));
#308=CARTESIAN_POINT('',(123.517638090205,0.,-8.78950252203348));
#309=CARTESIAN_POINT('',(123.,0.,0.));
#310=CARTESIAN_POINT('',(125.,0.,0.));
#311=CARTESIAN_POINT('',(125.,0.,-6.85765086945534));
#312=CARTESIAN_POINT('',(125.,6.85765086945534,0.));
#313=MECHANICAL_DESIGN_GEOMETRIC_PRESENTATION_REPRESENTATION('',(#121,#122,
#123,#124,#125,#126,#127,#128,#129,#130,#131),#314);
#314=(
GEOMETRIC_REPRESENTATION_CONTEXT(3)
GLOBAL_UNCERTAINTY_ASSIGNED_CONTEXT((#315))
GLOBAL_UNIT_ASSIGNED_CONTEXT((#318,#317,#316))
REPRESENTATION_CONTEXT('C01220125','TOP_LEVEL_ASSEMBLY_PART')
);
#315=UNCERTAINTY_MEASURE_WITH_UNIT(LENGTH_MEASURE(0.005),#318,
'DISTANCE_ACCURACY_VALUE','Maximum Tolerance applied to model');
#316=(
NAMED_UNIT(*)
SI_UNIT($,.STERADIAN.)
SOLID_ANGLE_UNIT()
);
#317=(
NAMED_UNIT(*)
PLANE_ANGLE_UNIT()
SI_UNIT($,.RADIAN.)
);
#318=(
LENGTH_UNIT()
NAMED_UNIT(*)
SI_UNIT(.MILLI.,.METRE.)
);
#319=PRODUCT_DEFINITION_SHAPE('','',#320);
#320=PRODUCT_DEFINITION('','',#322,#321);
#321=PRODUCT_DEFINITION_CONTEXT('',#328,'design');
#322=PRODUCT_DEFINITION_FORMATION_WITH_SPECIFIED_SOURCE('','',#324,
 .NOT_KNOWN.);
#323=PRODUCT_RELATED_PRODUCT_CATEGORY('','',(#324));
#324=PRODUCT('C01220125','C01220125','C01220125',(#326));
#325=PRODUCT_CATEGORY('','');
#326=PRODUCT_CONTEXT('',#328,'mechanical');
#327=APPLICATION_PROTOCOL_DEFINITION('international standard',
'automotive_design',2010,#328);
#328=APPLICATION_CONTEXT(
'core data for automotive mechanical design processes');
ENDSEC;
END-ISO-10303-21;
