ISO-10303-21;
HEADER;
FILE_DESCRIPTION(('STEP AP214'),'1');
FILE_NAME('T20M-22X180.stp','2023-10-04T08:40:58',(' '),(' '),'Spatial InterOp 3D',' ',' ');
FILE_SCHEMA(('automotive_design'));
ENDSEC;
DATA;
#1=MECHANICAL_DESIGN_GEOMETRIC_PRESENTATION_REPRESENTATION(' ',(#10,#11,#12,#13,#14,#15,#16,#17,#18,#19,#20,#21,#22,#23,#24,#25,#26,#27,#28,#29,#30,#31,#32,#33,#34,#35,#36,#37,#38,#39,#40,#41,#42,#43,#44),#6);
#2=PRODUCT_DEFINITION_CONTEXT('',#45,'design');
#3=APPLICATION_PROTOCOL_DEFINITION('INTERNATIONAL STANDARD','automotive_design',1994,#45);
#4=PRODUCT_CATEGORY_RELATIONSHIP('NONE','NONE',#46,#47);
#5=SHAPE_DEFINITION_REPRESENTATION(#48,#49);
#6= (GEOMETRIC_REPRESENTATION_CONTEXT(3)GLOBAL_UNCERTAINTY_ASSIGNED_CONTEXT((#52))GLOBAL_UNIT_ASSIGNED_CONTEXT((#54,#55,#56))REPRESENTATION_CONTEXT('NONE','WORKSPACE'));
#10=STYLED_ITEM('',(#58),#59);
#11=STYLED_ITEM('',(#60),#61);
#12=STYLED_ITEM('',(#62),#63);
#13=STYLED_ITEM('',(#64),#65);
#14=STYLED_ITEM('',(#66),#67);
#15=STYLED_ITEM('',(#68),#69);
#16=STYLED_ITEM('',(#70),#71);
#17=STYLED_ITEM('',(#72),#73);
#18=STYLED_ITEM('',(#74),#75);
#19=STYLED_ITEM('',(#76),#77);
#20=STYLED_ITEM('',(#78),#79);
#21=STYLED_ITEM('',(#80),#81);
#22=STYLED_ITEM('',(#82),#83);
#23=STYLED_ITEM('',(#84),#85);
#24=STYLED_ITEM('',(#86),#87);
#25=STYLED_ITEM('',(#88),#89);
#26=STYLED_ITEM('',(#90),#91);
#27=STYLED_ITEM('',(#92),#93);
#28=STYLED_ITEM('',(#94),#95);
#29=STYLED_ITEM('',(#96),#97);
#30=STYLED_ITEM('',(#98),#99);
#31=STYLED_ITEM('',(#100),#101);
#32=STYLED_ITEM('',(#102),#103);
#33=STYLED_ITEM('',(#104),#105);
#34=STYLED_ITEM('',(#106),#107);
#35=STYLED_ITEM('',(#108),#109);
#36=STYLED_ITEM('',(#110),#111);
#37=STYLED_ITEM('',(#112),#113);
#38=STYLED_ITEM('',(#114),#115);
#39=STYLED_ITEM('',(#116),#117);
#40=STYLED_ITEM('',(#118),#119);
#41=STYLED_ITEM('',(#120),#121);
#42=STYLED_ITEM('',(#122),#123);
#43=STYLED_ITEM('',(#124),#125);
#44=STYLED_ITEM('',(#126),#127);
#45=APPLICATION_CONTEXT(' ');
#46=PRODUCT_CATEGORY('part','NONE');
#47=PRODUCT_RELATED_PRODUCT_CATEGORY('detail',' ',(#128));
#48=PRODUCT_DEFINITION_SHAPE('NONE','NONE',#129);
#49=ADVANCED_BREP_SHAPE_REPRESENTATION('1',(#130,#131),#6);
#52=UNCERTAINTY_MEASURE_WITH_UNIT(LENGTH_MEASURE(1.0E-006),#54,'','');
#54= (CONVERSION_BASED_UNIT('METRE',#134)LENGTH_UNIT()NAMED_UNIT(#137));
#55= (NAMED_UNIT(#139)PLANE_ANGLE_UNIT()SI_UNIT($,.RADIAN.));
#56= (NAMED_UNIT(#139)SOLID_ANGLE_UNIT()SI_UNIT($,.STERADIAN.));
#58=PRESENTATION_STYLE_ASSIGNMENT((#145));
#59=ADVANCED_FACE('',(#146,#147),#148,.T.);
#60=PRESENTATION_STYLE_ASSIGNMENT((#149));
#61=ADVANCED_FACE('',(#150,#151),#152,.T.);
#62=PRESENTATION_STYLE_ASSIGNMENT((#153));
#63=ADVANCED_FACE('',(#154,#155),#156,.T.);
#64=PRESENTATION_STYLE_ASSIGNMENT((#157));
#65=ADVANCED_FACE('',(#158,#159),#160,.F.);
#66=PRESENTATION_STYLE_ASSIGNMENT((#161));
#67=ADVANCED_FACE('',(#162,#163),#164,.F.);
#68=PRESENTATION_STYLE_ASSIGNMENT((#165));
#69=ADVANCED_FACE('',(#166,#167),#168,.F.);
#70=PRESENTATION_STYLE_ASSIGNMENT((#169));
#71=ADVANCED_FACE('',(#170),#171,.T.);
#72=PRESENTATION_STYLE_ASSIGNMENT((#172));
#73=ADVANCED_FACE('',(#173),#174,.T.);
#74=PRESENTATION_STYLE_ASSIGNMENT((#175));
#75=ADVANCED_FACE('',(#176,#177),#178,.T.);
#76=PRESENTATION_STYLE_ASSIGNMENT((#179));
#77=ADVANCED_FACE('',(#180,#181),#182,.T.);
#78=PRESENTATION_STYLE_ASSIGNMENT((#183));
#79=ADVANCED_FACE('',(#184,#185),#186,.T.);
#80=PRESENTATION_STYLE_ASSIGNMENT((#187));
#81=ADVANCED_FACE('',(#188,#189),#190,.T.);
#82=PRESENTATION_STYLE_ASSIGNMENT((#191));
#83=ADVANCED_FACE('',(#192,#193),#194,.T.);
#84=PRESENTATION_STYLE_ASSIGNMENT((#195));
#85=ADVANCED_FACE('',(#196,#197),#198,.F.);
#86=PRESENTATION_STYLE_ASSIGNMENT((#199));
#87=ADVANCED_FACE('',(#200,#201),#202,.T.);
#88=PRESENTATION_STYLE_ASSIGNMENT((#203));
#89=ADVANCED_FACE('',(#204,#205),#206,.T.);
#90=PRESENTATION_STYLE_ASSIGNMENT((#207));
#91=ADVANCED_FACE('',(#208,#209),#210,.T.);
#92=PRESENTATION_STYLE_ASSIGNMENT((#211));
#93=ADVANCED_FACE('',(#212,#213),#214,.T.);
#94=PRESENTATION_STYLE_ASSIGNMENT((#215));
#95=EDGE_CURVE('',#216,#216,#217,.T.);
#96=PRESENTATION_STYLE_ASSIGNMENT((#218));
#97=EDGE_CURVE('',#219,#219,#220,.T.);
#98=PRESENTATION_STYLE_ASSIGNMENT((#221));
#99=EDGE_CURVE('',#222,#222,#223,.T.);
#100=PRESENTATION_STYLE_ASSIGNMENT((#224));
#101=EDGE_CURVE('',#225,#225,#226,.T.);
#102=PRESENTATION_STYLE_ASSIGNMENT((#227));
#103=EDGE_CURVE('',#228,#228,#229,.T.);
#104=PRESENTATION_STYLE_ASSIGNMENT((#230));
#105=EDGE_CURVE('',#231,#231,#232,.T.);
#106=PRESENTATION_STYLE_ASSIGNMENT((#233));
#107=EDGE_CURVE('',#234,#234,#235,.T.);
#108=PRESENTATION_STYLE_ASSIGNMENT((#236));
#109=EDGE_CURVE('',#237,#237,#238,.T.);
#110=PRESENTATION_STYLE_ASSIGNMENT((#239));
#111=EDGE_CURVE('',#240,#240,#241,.T.);
#112=PRESENTATION_STYLE_ASSIGNMENT((#242));
#113=EDGE_CURVE('',#243,#243,#244,.T.);
#114=PRESENTATION_STYLE_ASSIGNMENT((#245));
#115=EDGE_CURVE('',#246,#246,#247,.T.);
#116=PRESENTATION_STYLE_ASSIGNMENT((#248));
#117=EDGE_CURVE('',#249,#249,#250,.T.);
#118=PRESENTATION_STYLE_ASSIGNMENT((#251));
#119=EDGE_CURVE('',#252,#252,#253,.T.);
#120=PRESENTATION_STYLE_ASSIGNMENT((#254));
#121=EDGE_CURVE('',#255,#255,#256,.T.);
#122=PRESENTATION_STYLE_ASSIGNMENT((#257));
#123=EDGE_CURVE('',#258,#258,#259,.T.);
#124=PRESENTATION_STYLE_ASSIGNMENT((#260));
#125=EDGE_CURVE('',#261,#261,#262,.T.);
#126=PRESENTATION_STYLE_ASSIGNMENT((#263));
#127=EDGE_CURVE('',#264,#264,#265,.T.);
#128=PRODUCT('1','1','PART-1-DESC',(#266));
#129=PRODUCT_DEFINITION('NONE','NONE',#267,#2);
#130=MANIFOLD_SOLID_BREP('1',#268);
#131=AXIS2_PLACEMENT_3D('',#269,#270,#271);
#134=LENGTH_MEASURE_WITH_UNIT(LENGTH_MEASURE(1.0),#272);
#137=DIMENSIONAL_EXPONENTS(1.0,0.0,0.0,0.0,0.0,0.0,0.0);
#139=DIMENSIONAL_EXPONENTS(0.0,0.0,0.0,0.0,0.0,0.0,0.0);
#145=SURFACE_STYLE_USAGE(.BOTH.,#273);
#146=FACE_OUTER_BOUND('',#274,.T.);
#147=FACE_BOUND('',#275,.T.);
#148=CONICAL_SURFACE('',#276,0.0101614772456461,0.261799387799149);
#149=SURFACE_STYLE_USAGE(.BOTH.,#277);
#150=FACE_OUTER_BOUND('',#278,.T.);
#151=FACE_OUTER_BOUND('',#279,.T.);
#152=TOROIDAL_SURFACE('',#280,0.00835702866500318,0.001);
#153=SURFACE_STYLE_USAGE(.BOTH.,#281);
#154=FACE_OUTER_BOUND('',#282,.T.);
#155=FACE_OUTER_BOUND('',#283,.T.);
#156=CYLINDRICAL_SURFACE('',#284,0.011);
#157=SURFACE_STYLE_USAGE(.BOTH.,#285);
#158=FACE_OUTER_BOUND('',#286,.T.);
#159=FACE_OUTER_BOUND('',#287,.T.);
#160=TOROIDAL_SURFACE('',#288,0.0124400000001347,0.00194);
#161=SURFACE_STYLE_USAGE(.BOTH.,#289);
#162=FACE_OUTER_BOUND('',#290,.T.);
#163=FACE_OUTER_BOUND('',#291,.T.);
#164=TOROIDAL_SURFACE('',#292,0.0124400000001347,0.00194);
#165=SURFACE_STYLE_USAGE(.BOTH.,#293);
#166=FACE_OUTER_BOUND('',#294,.T.);
#167=FACE_OUTER_BOUND('',#295,.T.);
#168=TOROIDAL_SURFACE('',#296,0.011,0.0003);
#169=SURFACE_STYLE_USAGE(.BOTH.,#297);
#170=FACE_OUTER_BOUND('',#298,.T.);
#171=PLANE('',#299);
#172=SURFACE_STYLE_USAGE(.BOTH.,#300);
#173=FACE_OUTER_BOUND('',#301,.T.);
#174=PLANE('',#302);
#175=SURFACE_STYLE_USAGE(.BOTH.,#303);
#176=FACE_OUTER_BOUND('',#304,.T.);
#177=FACE_OUTER_BOUND('',#305,.T.);
#178=CYLINDRICAL_SURFACE('',#306,0.0107);
#179=SURFACE_STYLE_USAGE(.BOTH.,#307);
#180=FACE_OUTER_BOUND('',#308,.T.);
#181=FACE_BOUND('',#309,.T.);
#182=CONICAL_SURFACE('',#310,0.01085,0.26179938779915);
#183=SURFACE_STYLE_USAGE(.BOTH.,#311);
#184=FACE_OUTER_BOUND('',#312,.T.);
#185=FACE_OUTER_BOUND('',#313,.T.);
#186=CYLINDRICAL_SURFACE('',#314,0.011);
#187=SURFACE_STYLE_USAGE(.BOTH.,#315);
#188=FACE_OUTER_BOUND('',#316,.T.);
#189=FACE_BOUND('',#317,.T.);
#190=CONICAL_SURFACE('',#318,0.01225,0.78539816339745);
#191=SURFACE_STYLE_USAGE(.BOTH.,#319);
#192=FACE_OUTER_BOUND('',#320,.T.);
#193=FACE_OUTER_BOUND('',#321,.T.);
#194=CYLINDRICAL_SURFACE('',#322,0.0124);
#195=SURFACE_STYLE_USAGE(.BOTH.,#323);
#196=FACE_OUTER_BOUND('',#324,.T.);
#197=FACE_OUTER_BOUND('',#325,.T.);
#198=TOROIDAL_SURFACE('',#326,0.0124400000001347,0.00194);
#199=SURFACE_STYLE_USAGE(.BOTH.,#327);
#200=FACE_BOUND('',#328,.T.);
#201=FACE_OUTER_BOUND('',#329,.T.);
#202=CONICAL_SURFACE('',#330,0.01225,0.78539816339745);
#203=SURFACE_STYLE_USAGE(.BOTH.,#331);
#204=FACE_OUTER_BOUND('',#332,.T.);
#205=FACE_OUTER_BOUND('',#333,.T.);
#206=CYLINDRICAL_SURFACE('',#334,0.011);
#207=SURFACE_STYLE_USAGE(.BOTH.,#335);
#208=FACE_OUTER_BOUND('',#336,.T.);
#209=FACE_OUTER_BOUND('',#337,.T.);
#210=CYLINDRICAL_SURFACE('',#338,0.011);
#211=SURFACE_STYLE_USAGE(.BOTH.,#339);
#212=FACE_OUTER_BOUND('',#340,.T.);
#213=FACE_BOUND('',#341,.T.);
#214=PLANE('',#342);
#215=CURVE_STYLE('',#343,POSITIVE_LENGTH_MEASURE(1.0E-006),#344);
#216=VERTEX_POINT('',#345);
#217=CIRCLE('',#346,0.011);
#218=CURVE_STYLE('',#347,POSITIVE_LENGTH_MEASURE(1.0E-006),#348);
#219=VERTEX_POINT('',#349);
#220=CIRCLE('',#350,0.00932295449129225);
#221=CURVE_STYLE('',#351,POSITIVE_LENGTH_MEASURE(1.0E-006),#352);
#222=VERTEX_POINT('',#353);
#223=CIRCLE('',#354,0.00835702866500318);
#224=CURVE_STYLE('',#355,POSITIVE_LENGTH_MEASURE(1.0E-006),#356);
#225=VERTEX_POINT('',#357);
#226=CIRCLE('',#358,0.011);
#227=CURVE_STYLE('',#359,POSITIVE_LENGTH_MEASURE(1.0E-006),#360);
#228=VERTEX_POINT('',#361);
#229=CIRCLE('',#362,0.011);
#230=CURVE_STYLE('',#363,POSITIVE_LENGTH_MEASURE(1.0E-006),#364);
#231=VERTEX_POINT('',#365);
#232=CIRCLE('',#366,0.011);
#233=CURVE_STYLE('',#367,POSITIVE_LENGTH_MEASURE(1.0E-006),#368);
#234=VERTEX_POINT('',#369);
#235=CIRCLE('',#370,0.011);
#236=CURVE_STYLE('',#371,POSITIVE_LENGTH_MEASURE(1.0E-006),#372);
#237=VERTEX_POINT('',#373);
#238=CIRCLE('',#374,0.011);
#239=CURVE_STYLE('',#375,POSITIVE_LENGTH_MEASURE(1.0E-006),#376);
#240=VERTEX_POINT('',#377);
#241=CIRCLE('',#378,0.011);
#242=CURVE_STYLE('',#379,POSITIVE_LENGTH_MEASURE(1.0E-006),#380);
#243=VERTEX_POINT('',#381);
#244=CIRCLE('',#382,0.011);
#245=CURVE_STYLE('',#383,POSITIVE_LENGTH_MEASURE(1.0E-006),#384);
#246=VERTEX_POINT('',#385);
#247=CIRCLE('',#386,0.0107);
#248=CURVE_STYLE('',#387,POSITIVE_LENGTH_MEASURE(1.0E-006),#388);
#249=VERTEX_POINT('',#389);
#250=CIRCLE('',#390,0.0121);
#251=CURVE_STYLE('',#391,POSITIVE_LENGTH_MEASURE(1.0E-006),#392);
#252=VERTEX_POINT('',#393);
#253=CIRCLE('',#394,0.0107);
#254=CURVE_STYLE('',#395,POSITIVE_LENGTH_MEASURE(1.0E-006),#396);
#255=VERTEX_POINT('',#397);
#256=CIRCLE('',#398,0.0124);
#257=CURVE_STYLE('',#399,POSITIVE_LENGTH_MEASURE(1.0E-006),#400);
#258=VERTEX_POINT('',#401);
#259=CIRCLE('',#402,0.0124);
#260=CURVE_STYLE('',#403,POSITIVE_LENGTH_MEASURE(1.0E-006),#404);
#261=VERTEX_POINT('',#405);
#262=CIRCLE('',#406,0.011);
#263=CURVE_STYLE('',#407,POSITIVE_LENGTH_MEASURE(1.0E-006),#408);
#264=VERTEX_POINT('',#409);
#265=CIRCLE('',#410,0.0121);
#266=PRODUCT_CONTEXT('',#45,'mechanical');
#267=PRODUCT_DEFINITION_FORMATION_WITH_SPECIFIED_SOURCE(' ','NONE',#128,.NOT_KNOWN.);
#268=CLOSED_SHELL('',(#59,#61,#63,#65,#67,#69,#71,#73,#75,#77,#79,#81,#83,#85,#87,#89,#91,#93));
#269=CARTESIAN_POINT('',(0.0,0.0,0.0));
#270=DIRECTION('',(0.0,0.0,1.0));
#271=DIRECTION('',(1.0,0.0,0.0));
#272= (NAMED_UNIT(#137)LENGTH_UNIT()SI_UNIT($,.METRE.));
#273=SURFACE_SIDE_STYLE('',(#412));
#274=EDGE_LOOP('',(#413));
#275=EDGE_LOOP('',(#414));
#276=AXIS2_PLACEMENT_3D('',#415,#416,#417);
#277=SURFACE_SIDE_STYLE('',(#418));
#278=EDGE_LOOP('',(#419));
#279=EDGE_LOOP('',(#420));
#280=AXIS2_PLACEMENT_3D('',#421,#422,#423);
#281=SURFACE_SIDE_STYLE('',(#424));
#282=EDGE_LOOP('',(#425));
#283=EDGE_LOOP('',(#426));
#284=AXIS2_PLACEMENT_3D('',#427,#428,#429);
#285=SURFACE_SIDE_STYLE('',(#430));
#286=EDGE_LOOP('',(#431));
#287=EDGE_LOOP('',(#432));
#288=AXIS2_PLACEMENT_3D('',#433,#434,#435);
#289=SURFACE_SIDE_STYLE('',(#436));
#290=EDGE_LOOP('',(#437));
#291=EDGE_LOOP('',(#438));
#292=AXIS2_PLACEMENT_3D('',#439,#440,#441);
#293=SURFACE_SIDE_STYLE('',(#442));
#294=EDGE_LOOP('',(#443));
#295=EDGE_LOOP('',(#444));
#296=AXIS2_PLACEMENT_3D('',#445,#446,#447);
#297=SURFACE_SIDE_STYLE('',(#448));
#298=EDGE_LOOP('',(#449));
#299=AXIS2_PLACEMENT_3D('',#450,#451,#452);
#300=SURFACE_SIDE_STYLE('',(#453));
#301=EDGE_LOOP('',(#454));
#302=AXIS2_PLACEMENT_3D('',#455,#456,#457);
#303=SURFACE_SIDE_STYLE('',(#458));
#304=EDGE_LOOP('',(#459));
#305=EDGE_LOOP('',(#460));
#306=AXIS2_PLACEMENT_3D('',#461,#462,#463);
#307=SURFACE_SIDE_STYLE('',(#464));
#308=EDGE_LOOP('',(#465));
#309=EDGE_LOOP('',(#466));
#310=AXIS2_PLACEMENT_3D('',#467,#468,#469);
#311=SURFACE_SIDE_STYLE('',(#470));
#312=EDGE_LOOP('',(#471));
#313=EDGE_LOOP('',(#472));
#314=AXIS2_PLACEMENT_3D('',#473,#474,#475);
#315=SURFACE_SIDE_STYLE('',(#476));
#316=EDGE_LOOP('',(#477));
#317=EDGE_LOOP('',(#478));
#318=AXIS2_PLACEMENT_3D('',#479,#480,#481);
#319=SURFACE_SIDE_STYLE('',(#482));
#320=EDGE_LOOP('',(#483));
#321=EDGE_LOOP('',(#484));
#322=AXIS2_PLACEMENT_3D('',#485,#486,#487);
#323=SURFACE_SIDE_STYLE('',(#488));
#324=EDGE_LOOP('',(#489));
#325=EDGE_LOOP('',(#490));
#326=AXIS2_PLACEMENT_3D('',#491,#492,#493);
#327=SURFACE_SIDE_STYLE('',(#494));
#328=EDGE_LOOP('',(#495));
#329=EDGE_LOOP('',(#496));
#330=AXIS2_PLACEMENT_3D('',#497,#498,#499);
#331=SURFACE_SIDE_STYLE('',(#500));
#332=EDGE_LOOP('',(#501));
#333=EDGE_LOOP('',(#502));
#334=AXIS2_PLACEMENT_3D('',#503,#504,#505);
#335=SURFACE_SIDE_STYLE('',(#506));
#336=EDGE_LOOP('',(#507));
#337=EDGE_LOOP('',(#508));
#338=AXIS2_PLACEMENT_3D('',#509,#510,#511);
#339=SURFACE_SIDE_STYLE('',(#512));
#340=EDGE_LOOP('',(#513));
#341=EDGE_LOOP('',(#514));
#342=AXIS2_PLACEMENT_3D('',#515,#516,#517);
#343=DRAUGHTING_PRE_DEFINED_CURVE_FONT('continuous');
#344=COLOUR_RGB('',0.352941185235977,0.772549033164978,0.678431391716003);
#345=CARTESIAN_POINT('',(0.011,0.0,0.173));
#346=AXIS2_PLACEMENT_3D('',#518,#519,#520);
#347=DRAUGHTING_PRE_DEFINED_CURVE_FONT('continuous');
#348=COLOUR_RGB('',0.352941185235977,0.772549033164978,0.678431391716003);
#349=CARTESIAN_POINT('',(0.00932295449129225,0.0,0.179258819045103));
#350=AXIS2_PLACEMENT_3D('',#521,#522,#523);
#351=DRAUGHTING_PRE_DEFINED_CURVE_FONT('continuous');
#352=COLOUR_RGB('',0.352941185235977,0.772549033164978,0.678431391716003);
#353=CARTESIAN_POINT('',(-0.00835702866500318,0.0,0.18));
#354=AXIS2_PLACEMENT_3D('',#524,#525,#526);
#355=DRAUGHTING_PRE_DEFINED_CURVE_FONT('continuous');
#356=COLOUR_RGB('',0.352941185235977,0.772549033164978,0.678431391716003);
#357=CARTESIAN_POINT('',(0.011,0.0,0.0687000000001492));
#358=AXIS2_PLACEMENT_3D('',#527,#528,#529);
#359=DRAUGHTING_PRE_DEFINED_CURVE_FONT('continuous');
#360=COLOUR_RGB('',0.352941185235977,0.772549033164978,0.678431391716003);
#361=CARTESIAN_POINT('',(0.011,0.0,0.0075));
#362=AXIS2_PLACEMENT_3D('',#530,#531,#532);
#363=DRAUGHTING_PRE_DEFINED_CURVE_FONT('continuous');
#364=COLOUR_RGB('',0.352941185235977,0.772549033164978,0.678431391716003);
#365=CARTESIAN_POINT('',(0.011,0.0,0.151299999999851));
#366=AXIS2_PLACEMENT_3D('',#533,#534,#535);
#367=DRAUGHTING_PRE_DEFINED_CURVE_FONT('continuous');
#368=COLOUR_RGB('',0.352941185235977,0.772549033164978,0.678431391716003);
#369=CARTESIAN_POINT('',(0.011,0.0,0.148700000000149));
#370=AXIS2_PLACEMENT_3D('',#536,#537,#538);
#371=DRAUGHTING_PRE_DEFINED_CURVE_FONT('continuous');
#372=COLOUR_RGB('',0.352941185235977,0.772549033164978,0.678431391716003);
#373=CARTESIAN_POINT('',(0.011,0.0,0.111299999999851));
#374=AXIS2_PLACEMENT_3D('',#539,#540,#541);
#375=DRAUGHTING_PRE_DEFINED_CURVE_FONT('continuous');
#376=COLOUR_RGB('',0.352941185235977,0.772549033164978,0.678431391716003);
#377=CARTESIAN_POINT('',(0.011,0.0,0.108700000000149));
#378=AXIS2_PLACEMENT_3D('',#542,#543,#544);
#379=DRAUGHTING_PRE_DEFINED_CURVE_FONT('continuous');
#380=COLOUR_RGB('',0.352941185235977,0.772549033164978,0.678431391716003);
#381=CARTESIAN_POINT('',(0.011,0.0,0.006));
#382=AXIS2_PLACEMENT_3D('',#545,#546,#547);
#383=DRAUGHTING_PRE_DEFINED_CURVE_FONT('continuous');
#384=COLOUR_RGB('',0.352941185235977,0.772549033164978,0.678431391716003);
#385=CARTESIAN_POINT('',(0.0107,0.0,0.0063));
#386=AXIS2_PLACEMENT_3D('',#548,#549,#550);
#387=DRAUGHTING_PRE_DEFINED_CURVE_FONT('continuous');
#388=COLOUR_RGB('',0.352941185235977,0.772549033164978,0.678431391716003);
#389=CARTESIAN_POINT('',(0.0121,0.0,0.0));
#390=AXIS2_PLACEMENT_3D('',#551,#552,#553);
#391=DRAUGHTING_PRE_DEFINED_CURVE_FONT('continuous');
#392=COLOUR_RGB('',0.352941185235977,0.772549033164978,0.678431391716003);
#393=CARTESIAN_POINT('',(0.0107,0.0,0.00638038475772934));
#394=AXIS2_PLACEMENT_3D('',#554,#555,#556);
#395=DRAUGHTING_PRE_DEFINED_CURVE_FONT('continuous');
#396=COLOUR_RGB('',0.352941185235977,0.772549033164978,0.678431391716003);
#397=CARTESIAN_POINT('',(0.0124,0.0,0.0003));
#398=AXIS2_PLACEMENT_3D('',#557,#558,#559);
#399=DRAUGHTING_PRE_DEFINED_CURVE_FONT('continuous');
#400=COLOUR_RGB('',0.352941185235977,0.772549033164978,0.678431391716003);
#401=CARTESIAN_POINT('',(0.0124,0.0,0.0057));
#402=AXIS2_PLACEMENT_3D('',#560,#561,#562);
#403=DRAUGHTING_PRE_DEFINED_CURVE_FONT('continuous');
#404=COLOUR_RGB('',0.352941185235977,0.772549033164978,0.678431391716003);
#405=CARTESIAN_POINT('',(0.011,0.0,0.0712999999998508));
#406=AXIS2_PLACEMENT_3D('',#563,#564,#565);
#407=DRAUGHTING_PRE_DEFINED_CURVE_FONT('continuous');
#408=COLOUR_RGB('',0.352941185235977,0.772549033164978,0.678431391716003);
#409=CARTESIAN_POINT('',(0.0121,0.0,0.006));
#410=AXIS2_PLACEMENT_3D('',#566,#567,#568);
#412=SURFACE_STYLE_FILL_AREA(#569);
#413=ORIENTED_EDGE('',*,*,#95,.F.);
#414=ORIENTED_EDGE('',*,*,#97,.T.);
#415=CARTESIAN_POINT('',(0.0,0.0,0.176129409522551));
#416=DIRECTION('',(0.0,-0.0,-1.0));
#417=DIRECTION('',(1.0,0.0,0.0));
#418=SURFACE_STYLE_FILL_AREA(#570);
#419=ORIENTED_EDGE('',*,*,#99,.F.);
#420=ORIENTED_EDGE('',*,*,#97,.F.);
#421=CARTESIAN_POINT('',(0.0,0.0,0.179));
#422=DIRECTION('',(0.0,0.0,-1.0));
#423=DIRECTION('',(-1.0,0.0,0.0));
#424=SURFACE_STYLE_FILL_AREA(#571);
#425=ORIENTED_EDGE('',*,*,#101,.T.);
#426=ORIENTED_EDGE('',*,*,#103,.T.);
#427=CARTESIAN_POINT('',(0.0,0.0,0.093));
#428=DIRECTION('',(0.0,-0.0,1.0));
#429=DIRECTION('',(1.0,0.0,0.0));
#430=SURFACE_STYLE_FILL_AREA(#572);
#431=ORIENTED_EDGE('',*,*,#105,.F.);
#432=ORIENTED_EDGE('',*,*,#107,.F.);
#433=CARTESIAN_POINT('',(0.0,0.0,0.15));
#434=DIRECTION('',(0.0,0.0,1.0));
#435=DIRECTION('',(1.0,0.0,0.0));
#436=SURFACE_STYLE_FILL_AREA(#573);
#437=ORIENTED_EDGE('',*,*,#109,.F.);
#438=ORIENTED_EDGE('',*,*,#111,.F.);
#439=CARTESIAN_POINT('',(0.0,0.0,0.11));
#440=DIRECTION('',(0.0,0.0,1.0));
#441=DIRECTION('',(1.0,0.0,0.0));
#442=SURFACE_STYLE_FILL_AREA(#574);
#443=ORIENTED_EDGE('',*,*,#113,.F.);
#444=ORIENTED_EDGE('',*,*,#115,.F.);
#445=CARTESIAN_POINT('',(0.0,0.0,0.0063));
#446=DIRECTION('',(0.0,0.0,1.0));
#447=DIRECTION('',(-1.0,0.0,0.0));
#448=SURFACE_STYLE_FILL_AREA(#575);
#449=ORIENTED_EDGE('',*,*,#99,.T.);
#450=CARTESIAN_POINT('',(0.0055,0.0,0.18));
#451=DIRECTION('',(0.0,0.0,1.0));
#452=DIRECTION('',(1.0,-0.0,0.0));
#453=SURFACE_STYLE_FILL_AREA(#576);
#454=ORIENTED_EDGE('',*,*,#117,.T.);
#455=CARTESIAN_POINT('',(0.00605,0.0,0.0));
#456=DIRECTION('',(0.0,0.0,-1.0));
#457=DIRECTION('',(0.0,-1.0,0.0));
#458=SURFACE_STYLE_FILL_AREA(#577);
#459=ORIENTED_EDGE('',*,*,#119,.F.);
#460=ORIENTED_EDGE('',*,*,#115,.T.);
#461=CARTESIAN_POINT('',(0.0,0.0,0.00634019237886467));
#462=DIRECTION('',(0.0,0.0,-1.0));
#463=DIRECTION('',(1.0,0.0,0.0));
#464=SURFACE_STYLE_FILL_AREA(#578);
#465=ORIENTED_EDGE('',*,*,#103,.F.);
#466=ORIENTED_EDGE('',*,*,#119,.T.);
#467=CARTESIAN_POINT('',(0.0,0.0,0.00694019237886467));
#468=DIRECTION('',(-0.0,-0.0,1.0));
#469=DIRECTION('',(1.0,0.0,0.0));
#470=SURFACE_STYLE_FILL_AREA(#579);
#471=ORIENTED_EDGE('',*,*,#95,.T.);
#472=ORIENTED_EDGE('',*,*,#105,.T.);
#473=CARTESIAN_POINT('',(0.0,0.0,0.093));
#474=DIRECTION('',(0.0,-0.0,1.0));
#475=DIRECTION('',(1.0,0.0,0.0));
#476=SURFACE_STYLE_FILL_AREA(#580);
#477=ORIENTED_EDGE('',*,*,#121,.T.);
#478=ORIENTED_EDGE('',*,*,#117,.F.);
#479=CARTESIAN_POINT('',(0.0,0.0,0.00015));
#480=DIRECTION('',(-0.0,-0.0,1.0));
#481=DIRECTION('',(1.0,0.0,0.0));
#482=SURFACE_STYLE_FILL_AREA(#581);
#483=ORIENTED_EDGE('',*,*,#123,.T.);
#484=ORIENTED_EDGE('',*,*,#121,.F.);
#485=CARTESIAN_POINT('',(0.0,0.0,0.003));
#486=DIRECTION('',(0.0,-0.0,1.0));
#487=DIRECTION('',(1.0,0.0,0.0));
#488=SURFACE_STYLE_FILL_AREA(#582);
#489=ORIENTED_EDGE('',*,*,#125,.F.);
#490=ORIENTED_EDGE('',*,*,#101,.F.);
#491=CARTESIAN_POINT('',(0.0,0.0,0.07));
#492=DIRECTION('',(0.0,0.0,1.0));
#493=DIRECTION('',(1.0,0.0,0.0));
#494=SURFACE_STYLE_FILL_AREA(#583);
#495=ORIENTED_EDGE('',*,*,#127,.T.);
#496=ORIENTED_EDGE('',*,*,#123,.F.);
#497=CARTESIAN_POINT('',(0.0,0.0,0.00585));
#498=DIRECTION('',(0.0,-0.0,-1.0));
#499=DIRECTION('',(1.0,0.0,0.0));
#500=SURFACE_STYLE_FILL_AREA(#584);
#501=ORIENTED_EDGE('',*,*,#107,.T.);
#502=ORIENTED_EDGE('',*,*,#109,.T.);
#503=CARTESIAN_POINT('',(0.0,0.0,0.093));
#504=DIRECTION('',(0.0,-0.0,1.0));
#505=DIRECTION('',(1.0,0.0,0.0));
#506=SURFACE_STYLE_FILL_AREA(#585);
#507=ORIENTED_EDGE('',*,*,#111,.T.);
#508=ORIENTED_EDGE('',*,*,#125,.T.);
#509=CARTESIAN_POINT('',(0.0,0.0,0.093));
#510=DIRECTION('',(0.0,-0.0,1.0));
#511=DIRECTION('',(1.0,0.0,0.0));
#512=SURFACE_STYLE_FILL_AREA(#586);
#513=ORIENTED_EDGE('',*,*,#127,.F.);
#514=ORIENTED_EDGE('',*,*,#113,.T.);
#515=CARTESIAN_POINT('',(0.01155,0.0,0.006));
#516=DIRECTION('',(0.0,0.0,1.0));
#517=DIRECTION('',(1.0,-0.0,0.0));
#518=CARTESIAN_POINT('',(0.0,0.0,0.173));
#519=DIRECTION('',(0.0,0.0,-1.0));
#520=DIRECTION('',(1.0,0.0,0.0));
#521=CARTESIAN_POINT('',(0.0,0.0,0.179258819045103));
#522=DIRECTION('',(0.0,0.0,-1.0));
#523=DIRECTION('',(1.0,0.0,0.0));
#524=CARTESIAN_POINT('',(0.0,0.0,0.18));
#525=DIRECTION('',(0.0,0.0,1.0));
#526=DIRECTION('',(-1.0,0.0,0.0));
#527=CARTESIAN_POINT('',(0.0,0.0,0.0687000000001492));
#528=DIRECTION('',(0.0,0.0,-1.0));
#529=DIRECTION('',(1.0,0.0,0.0));
#530=CARTESIAN_POINT('',(0.0,0.0,0.0075));
#531=DIRECTION('',(0.0,-0.0,1.0));
#532=DIRECTION('',(1.0,0.0,0.0));
#533=CARTESIAN_POINT('',(0.0,0.0,0.151299999999851));
#534=DIRECTION('',(0.0,-0.0,1.0));
#535=DIRECTION('',(1.0,0.0,0.0));
#536=CARTESIAN_POINT('',(0.0,0.0,0.148700000000149));
#537=DIRECTION('',(0.0,0.0,-1.0));
#538=DIRECTION('',(1.0,0.0,0.0));
#539=CARTESIAN_POINT('',(0.0,0.0,0.111299999999851));
#540=DIRECTION('',(0.0,-0.0,1.0));
#541=DIRECTION('',(1.0,0.0,0.0));
#542=CARTESIAN_POINT('',(0.0,0.0,0.108700000000149));
#543=DIRECTION('',(0.0,0.0,-1.0));
#544=DIRECTION('',(1.0,0.0,0.0));
#545=CARTESIAN_POINT('',(0.0,0.0,0.006));
#546=DIRECTION('',(0.0,0.0,-1.0));
#547=DIRECTION('',(1.0,0.0,0.0));
#548=CARTESIAN_POINT('',(0.0,0.0,0.0063));
#549=DIRECTION('',(0.0,0.0,1.0));
#550=DIRECTION('',(1.0,0.0,0.0));
#551=CARTESIAN_POINT('',(0.0,0.0,0.0));
#552=DIRECTION('',(0.0,0.0,-1.0));
#553=DIRECTION('',(1.0,0.0,0.0));
#554=CARTESIAN_POINT('',(0.0,0.0,0.00638038475772934));
#555=DIRECTION('',(0.0,0.0,1.0));
#556=DIRECTION('',(1.0,0.0,0.0));
#557=CARTESIAN_POINT('',(0.0,0.0,0.0003));
#558=DIRECTION('',(0.0,0.0,-1.0));
#559=DIRECTION('',(1.0,0.0,0.0));
#560=CARTESIAN_POINT('',(0.0,0.0,0.0057));
#561=DIRECTION('',(0.0,0.0,-1.0));
#562=DIRECTION('',(1.0,0.0,0.0));
#563=CARTESIAN_POINT('',(0.0,0.0,0.0712999999998508));
#564=DIRECTION('',(0.0,-0.0,1.0));
#565=DIRECTION('',(1.0,0.0,0.0));
#566=CARTESIAN_POINT('',(0.0,0.0,0.006));
#567=DIRECTION('',(0.0,0.0,-1.0));
#568=DIRECTION('',(1.0,0.0,0.0));
#569=FILL_AREA_STYLE('',(#587));
#570=FILL_AREA_STYLE('',(#588));
#571=FILL_AREA_STYLE('',(#589));
#572=FILL_AREA_STYLE('',(#590));
#573=FILL_AREA_STYLE('',(#591));
#574=FILL_AREA_STYLE('',(#592));
#575=FILL_AREA_STYLE('',(#593));
#576=FILL_AREA_STYLE('',(#594));
#577=FILL_AREA_STYLE('',(#595));
#578=FILL_AREA_STYLE('',(#596));
#579=FILL_AREA_STYLE('',(#597));
#580=FILL_AREA_STYLE('',(#598));
#581=FILL_AREA_STYLE('',(#599));
#582=FILL_AREA_STYLE('',(#600));
#583=FILL_AREA_STYLE('',(#601));
#584=FILL_AREA_STYLE('',(#602));
#585=FILL_AREA_STYLE('',(#603));
#586=FILL_AREA_STYLE('',(#604));
#587=FILL_AREA_STYLE_COLOUR('',#605);
#588=FILL_AREA_STYLE_COLOUR('',#606);
#589=FILL_AREA_STYLE_COLOUR('',#607);
#590=FILL_AREA_STYLE_COLOUR('',#608);
#591=FILL_AREA_STYLE_COLOUR('',#609);
#592=FILL_AREA_STYLE_COLOUR('',#610);
#593=FILL_AREA_STYLE_COLOUR('',#611);
#594=FILL_AREA_STYLE_COLOUR('',#612);
#595=FILL_AREA_STYLE_COLOUR('',#613);
#596=FILL_AREA_STYLE_COLOUR('',#614);
#597=FILL_AREA_STYLE_COLOUR('',#615);
#598=FILL_AREA_STYLE_COLOUR('',#616);
#599=FILL_AREA_STYLE_COLOUR('',#617);
#600=FILL_AREA_STYLE_COLOUR('',#618);
#601=FILL_AREA_STYLE_COLOUR('',#619);
#602=FILL_AREA_STYLE_COLOUR('',#620);
#603=FILL_AREA_STYLE_COLOUR('',#621);
#604=FILL_AREA_STYLE_COLOUR('',#622);
#605=COLOUR_RGB('',0.752941191196442,0.752941191196442,0.752941191196442);
#606=COLOUR_RGB('',0.752941191196442,0.752941191196442,0.752941191196442);
#607=COLOUR_RGB('',0.752941191196442,0.752941191196442,0.752941191196442);
#608=COLOUR_RGB('',0.752941191196442,0.752941191196442,0.752941191196442);
#609=COLOUR_RGB('',0.752941191196442,0.752941191196442,0.752941191196442);
#610=COLOUR_RGB('',0.752941191196442,0.752941191196442,0.752941191196442);
#611=COLOUR_RGB('',0.752941191196442,0.752941191196442,0.752941191196442);
#612=COLOUR_RGB('',0.752941191196442,0.752941191196442,0.752941191196442);
#613=COLOUR_RGB('',0.752941191196442,0.752941191196442,0.752941191196442);
#614=COLOUR_RGB('',0.752941191196442,0.752941191196442,0.752941191196442);
#615=COLOUR_RGB('',0.752941191196442,0.752941191196442,0.752941191196442);
#616=COLOUR_RGB('',0.752941191196442,0.752941191196442,0.752941191196442);
#617=COLOUR_RGB('',0.752941191196442,0.752941191196442,0.752941191196442);
#618=COLOUR_RGB('',0.752941191196442,0.752941191196442,0.752941191196442);
#619=COLOUR_RGB('',0.752941191196442,0.752941191196442,0.752941191196442);
#620=COLOUR_RGB('',0.752941191196442,0.752941191196442,0.752941191196442);
#621=COLOUR_RGB('',0.752941191196442,0.752941191196442,0.752941191196442);
#622=COLOUR_RGB('',0.752941191196442,0.752941191196442,0.752941191196442);
#623=PRESENTATION_LAYER_ASSIGNMENT('LAYER_','',(#130));
ENDSEC;
END-ISO-10303-21;
