ISO-10303-21;
HEADER;
FILE_DESCRIPTION( ( 'STEP AP214' ), ' ' );
FILE_NAME( 'p:/temp/worker_132/4004_2020/app_40_02016022910455095548716192d056f_000000_00_00_000000/format_0/N3118x116x4x0.5.stp', '2016-02-29T09:45:51', ( '' ), ( '' ), ' ', 'PARTsolutions', ' ' );
FILE_SCHEMA( ( 'AUTOMOTIVE_DESIGN { 1 0 10303 214 1 1 1 1 }' ) );
ENDSEC;
DATA;
#1 = MECHANICAL_DESIGN_GEOMETRIC_PRESENTATION_REPRESENTATION( ' ', ( #10, #11, #12, #13, #14, #15, #16, #17, #18, #19, #20, #21 ), #6 );
#2 = PRODUCT_DEFINITION_CONTEXT( '', #22, 'design' );
#3 = APPLICATION_PROTOCOL_DEFINITION( 'international standard', 'automotive_design', 2001, #22 );
#4 = PRODUCT_CATEGORY_RELATIONSHIP( 'NONE', 'NONE', #23, #24 );
#5 = SHAPE_DEFINITION_REPRESENTATION( #25, #26 );
#6 =  ( GEOMETRIC_REPRESENTATION_CONTEXT( 3 )GLOBAL_UNCERTAINTY_ASSIGNED_CONTEXT( ( #29 ) )GLOBAL_UNIT_ASSIGNED_CONTEXT( ( #31, #32, #33 ) )REPRESENTATION_CONTEXT( 'NONE', 'WORKSPACE' ) );
#10 = STYLED_ITEM( '', ( #35 ), #36 );
#11 = STYLED_ITEM( '', ( #37 ), #38 );
#12 = STYLED_ITEM( '', ( #39 ), #40 );
#13 = STYLED_ITEM( '', ( #41 ), #42 );
#14 = STYLED_ITEM( '', ( #43 ), #44 );
#15 = STYLED_ITEM( '', ( #45 ), #46 );
#16 = STYLED_ITEM( '', ( #47 ), #48 );
#17 = STYLED_ITEM( '', ( #49 ), #50 );
#18 = STYLED_ITEM( '', ( #51 ), #52 );
#19 = STYLED_ITEM( '', ( #53 ), #54 );
#20 = STYLED_ITEM( '', ( #55 ), #56 );
#21 = STYLED_ITEM( '', ( #57 ), #58 );
#22 = APPLICATION_CONTEXT( 'core data for automotive mechanical design processes' );
#23 = PRODUCT_CATEGORY( 'part', 'NONE' );
#24 = PRODUCT_RELATED_PRODUCT_CATEGORY( 'detail', ' ', ( #59 ) );
#25 = PRODUCT_DEFINITION_SHAPE( 'NONE', 'NONE', #60 );
#26 = ADVANCED_BREP_SHAPE_REPRESENTATION( '_N3118x116x4x0.5', ( #61, #62 ), #6 );
#29 = UNCERTAINTY_MEASURE_WITH_UNIT( LENGTH_MEASURE( 0.00100000000000000 ), #31, '', '' );
#31 =  ( CONVERSION_BASED_UNIT( 'MILLIMETRE', #65 )LENGTH_UNIT(  )NAMED_UNIT( #68 ) );
#32 =  ( NAMED_UNIT( #70 )PLANE_ANGLE_UNIT(  )SI_UNIT( $, .RADIAN. ) );
#33 =  ( NAMED_UNIT( #70 )SI_UNIT( $, .STERADIAN. )SOLID_ANGLE_UNIT(  ) );
#35 = PRESENTATION_STYLE_ASSIGNMENT( ( #76 ) );
#36 = ADVANCED_FACE( '', ( #77, #78 ), #79, .F. );
#37 = PRESENTATION_STYLE_ASSIGNMENT( ( #80 ) );
#38 = ADVANCED_FACE( '', ( #81, #82 ), #83, .T. );
#39 = PRESENTATION_STYLE_ASSIGNMENT( ( #84 ) );
#40 = ADVANCED_FACE( '', ( #85, #86 ), #87, .T. );
#41 = PRESENTATION_STYLE_ASSIGNMENT( ( #88 ) );
#42 = ADVANCED_FACE( '', ( #89, #90 ), #91, .F. );
#43 = PRESENTATION_STYLE_ASSIGNMENT( ( #92 ) );
#44 = ADVANCED_FACE( '', ( #93, #94 ), #95, .F. );
#45 = PRESENTATION_STYLE_ASSIGNMENT( ( #96 ) );
#46 = ADVANCED_FACE( '', ( #97, #98 ), #99, .F. );
#47 = PRESENTATION_STYLE_ASSIGNMENT( ( #100 ) );
#48 = ADVANCED_FACE( '', ( #101, #102, #103 ), #104, .T. );
#49 = PRESENTATION_STYLE_ASSIGNMENT( ( #105 ) );
#50 = ADVANCED_FACE( '', ( #106, #107, #108 ), #109, .T. );
#51 = PRESENTATION_STYLE_ASSIGNMENT( ( #110 ) );
#52 = ADVANCED_FACE( '', ( #111, #112 ), #113, .T. );
#53 = PRESENTATION_STYLE_ASSIGNMENT( ( #114 ) );
#54 = ADVANCED_FACE( '', ( #115, #116 ), #117, .F. );
#55 = PRESENTATION_STYLE_ASSIGNMENT( ( #118 ) );
#56 = ADVANCED_FACE( '', ( #119, #120 ), #121, .F. );
#57 = PRESENTATION_STYLE_ASSIGNMENT( ( #122 ) );
#58 = ADVANCED_FACE( '', ( #123, #124 ), #125, .F. );
#59 = PRODUCT( '_N3118x116x4x0.5', '_N3118x116x4x0.5', 'PART-_N3118x116x4x0.5-DESC', ( #126 ) );
#60 = PRODUCT_DEFINITION( 'NONE', 'NONE', #127, #2 );
#61 = MANIFOLD_SOLID_BREP( '_N3118x116x4x0.5', #128 );
#62 = AXIS2_PLACEMENT_3D( '', #129, #130, #131 );
#65 = LENGTH_MEASURE_WITH_UNIT( LENGTH_MEASURE( 1.00000000000000 ), #132 );
#68 = DIMENSIONAL_EXPONENTS( 1.00000000000000, 0.000000000000000, 0.000000000000000, 0.000000000000000, 0.000000000000000, 0.000000000000000, 0.000000000000000 );
#70 = DIMENSIONAL_EXPONENTS( 0.000000000000000, 0.000000000000000, 0.000000000000000, 0.000000000000000, 0.000000000000000, 0.000000000000000, 0.000000000000000 );
#76 = SURFACE_STYLE_USAGE( .BOTH., #133 );
#77 = FACE_OUTER_BOUND( '', #134, .T. );
#78 = FACE_OUTER_BOUND( '', #135, .T. );
#79 = TOROIDAL_SURFACE( '', #136, 9.90000000000000, 0.899999999999995 );
#80 = SURFACE_STYLE_USAGE( .BOTH., #137 );
#81 = FACE_OUTER_BOUND( '', #138, .T. );
#82 = FACE_BOUND( '', #139, .T. );
#83 = PLANE( '', #140 );
#84 = SURFACE_STYLE_USAGE( .BOTH., #141 );
#85 = FACE_BOUND( '', #142, .T. );
#86 = FACE_OUTER_BOUND( '', #143, .T. );
#87 = PLANE( '', #144 );
#88 = SURFACE_STYLE_USAGE( .BOTH., #145 );
#89 = FACE_BOUND( '', #146, .T. );
#90 = FACE_OUTER_BOUND( '', #147, .T. );
#91 = CONICAL_SURFACE( '', #148, 2.00000000000000, 1.04719755119660 );
#92 = SURFACE_STYLE_USAGE( .BOTH., #149 );
#93 = FACE_OUTER_BOUND( '', #150, .T. );
#94 = FACE_OUTER_BOUND( '', #151, .T. );
#95 = SPHERICAL_SURFACE( '', #152, 15.4999999999996 );
#96 = SURFACE_STYLE_USAGE( .BOTH., #153 );
#97 = FACE_OUTER_BOUND( '', #154, .T. );
#98 = FACE_OUTER_BOUND( '', #155, .T. );
#99 = CYLINDRICAL_SURFACE( '', #156, 2.00000000000000 );
#100 = SURFACE_STYLE_USAGE( .BOTH., #157 );
#101 = FACE_OUTER_BOUND( '', #158, .T. );
#102 = FACE_BOUND( '', #159, .T. );
#103 = FACE_BOUND( '', #160, .T. );
#104 = PLANE( '', #161 );
#105 = SURFACE_STYLE_USAGE( .BOTH., #162 );
#106 = FACE_OUTER_BOUND( '', #163, .T. );
#107 = FACE_BOUND( '', #164, .T. );
#108 = FACE_OUTER_BOUND( '', #165, .T. );
#109 = CYLINDRICAL_SURFACE( '', #166, 19.0000000000000 );
#110 = SURFACE_STYLE_USAGE( .BOTH., #167 );
#111 = FACE_OUTER_BOUND( '', #168, .T. );
#112 = FACE_OUTER_BOUND( '', #169, .T. );
#113 = CYLINDRICAL_SURFACE( '', #170, 9.00000000000000 );
#114 = SURFACE_STYLE_USAGE( .BOTH., #171 );
#115 = FACE_OUTER_BOUND( '', #172, .T. );
#116 = FACE_BOUND( '', #173, .T. );
#117 = CONICAL_SURFACE( '', #174, 2.00758746143562, 0.00872664625997160 );
#118 = SURFACE_STYLE_USAGE( .BOTH., #175 );
#119 = FACE_OUTER_BOUND( '', #176, .T. );
#120 = FACE_OUTER_BOUND( '', #177, .T. );
#121 = CYLINDRICAL_SURFACE( '', #178, 2.00000000000000 );
#122 = SURFACE_STYLE_USAGE( .BOTH., #179 );
#123 = FACE_OUTER_BOUND( '', #180, .T. );
#124 = FACE_BOUND( '', #181, .T. );
#125 = CONICAL_SURFACE( '', #182, 866.025403784439, 1.04719755119660 );
#126 = PRODUCT_CONTEXT( '', #22, 'mechanical' );
#127 = PRODUCT_DEFINITION_FORMATION_WITH_SPECIFIED_SOURCE( ' ', 'NONE', #59, .NOT_KNOWN. );
#128 = CLOSED_SHELL( '', ( #58, #56, #42, #50, #40, #48, #36, #52, #38, #54, #44, #46 ) );
#129 = CARTESIAN_POINT( '', ( 0.000000000000000, 0.000000000000000, 0.000000000000000 ) );
#130 = DIRECTION( '', ( 0.000000000000000, 0.000000000000000, 1.00000000000000 ) );
#131 = DIRECTION( '', ( 1.00000000000000, 0.000000000000000, 0.000000000000000 ) );
#132 =  ( LENGTH_UNIT(  )NAMED_UNIT( #68 )SI_UNIT( .MILLI., .METRE. ) );
#133 = SURFACE_SIDE_STYLE( '', ( #184 ) );
#134 = EDGE_LOOP( '', ( #185 ) );
#135 = EDGE_LOOP( '', ( #186 ) );
#136 = AXIS2_PLACEMENT_3D( '', #187, #188, #189 );
#137 = SURFACE_SIDE_STYLE( '', ( #190 ) );
#138 = EDGE_LOOP( '', ( #191 ) );
#139 = EDGE_LOOP( '', ( #192 ) );
#140 = AXIS2_PLACEMENT_3D( '', #193, #194, #195 );
#141 = SURFACE_SIDE_STYLE( '', ( #196 ) );
#142 = EDGE_LOOP( '', ( #197 ) );
#143 = EDGE_LOOP( '', ( #198 ) );
#144 = AXIS2_PLACEMENT_3D( '', #199, #200, #201 );
#145 = SURFACE_SIDE_STYLE( '', ( #202 ) );
#146 = VERTEX_LOOP( '', #203 );
#147 = EDGE_LOOP( '', ( #204 ) );
#148 = AXIS2_PLACEMENT_3D( '', #205, #206, #207 );
#149 = SURFACE_SIDE_STYLE( '', ( #208 ) );
#150 = EDGE_LOOP( '', ( #209 ) );
#151 = EDGE_LOOP( '', ( #210 ) );
#152 = AXIS2_PLACEMENT_3D( '', #211, #212, #213 );
#153 = SURFACE_SIDE_STYLE( '', ( #214 ) );
#154 = EDGE_LOOP( '', ( #215 ) );
#155 = EDGE_LOOP( '', ( #216 ) );
#156 = AXIS2_PLACEMENT_3D( '', #217, #218, #219 );
#157 = SURFACE_SIDE_STYLE( '', ( #220 ) );
#158 = EDGE_LOOP( '', ( #221 ) );
#159 = EDGE_LOOP( '', ( #222 ) );
#160 = EDGE_LOOP( '', ( #223 ) );
#161 = AXIS2_PLACEMENT_3D( '', #224, #225, #226 );
#162 = SURFACE_SIDE_STYLE( '', ( #227 ) );
#163 = EDGE_LOOP( '', ( #228 ) );
#164 = EDGE_LOOP( '', ( #229 ) );
#165 = EDGE_LOOP( '', ( #230 ) );
#166 = AXIS2_PLACEMENT_3D( '', #231, #232, #233 );
#167 = SURFACE_SIDE_STYLE( '', ( #234 ) );
#168 = EDGE_LOOP( '', ( #235 ) );
#169 = EDGE_LOOP( '', ( #236 ) );
#170 = AXIS2_PLACEMENT_3D( '', #237, #238, #239 );
#171 = SURFACE_SIDE_STYLE( '', ( #240 ) );
#172 = EDGE_LOOP( '', ( #241 ) );
#173 = EDGE_LOOP( '', ( #242 ) );
#174 = AXIS2_PLACEMENT_3D( '', #243, #244, #245 );
#175 = SURFACE_SIDE_STYLE( '', ( #246 ) );
#176 = EDGE_LOOP( '', ( #247 ) );
#177 = EDGE_LOOP( '', ( #248 ) );
#178 = AXIS2_PLACEMENT_3D( '', #249, #250, #251 );
#179 = SURFACE_SIDE_STYLE( '', ( #252 ) );
#180 = EDGE_LOOP( '', ( #253 ) );
#181 = VERTEX_LOOP( '', #254 );
#182 = AXIS2_PLACEMENT_3D( '', #255, #256, #257 );
#184 = SURFACE_STYLE_FILL_AREA( #258 );
#185 = ORIENTED_EDGE( '', *, *, #259, .F. );
#186 = ORIENTED_EDGE( '', *, *, #260, .T. );
#187 = CARTESIAN_POINT( '', ( 18.9000000000000, 0.000000000000000, 0.000000000000000 ) );
#188 = DIRECTION( '', ( 1.00000000000000, 0.000000000000000, -0.000000000000000 ) );
#189 = DIRECTION( '', ( -0.000000000000000, 0.000000000000000, -1.00000000000000 ) );
#190 = SURFACE_STYLE_FILL_AREA( #261 );
#191 = ORIENTED_EDGE( '', *, *, #262, .T. );
#192 = ORIENTED_EDGE( '', *, *, #263, .F. );
#193 = CARTESIAN_POINT( '', ( 134.000000000000, 3.16940028396168, 0.000000000000000 ) );
#194 = DIRECTION( '', ( 1.00000000000000, 0.000000000000000, -0.000000000000000 ) );
#195 = DIRECTION( '', ( -0.000000000000000, 0.000000000000000, -1.00000000000000 ) );
#196 = SURFACE_STYLE_FILL_AREA( #264 );
#197 = ORIENTED_EDGE( '', *, *, #265, .T. );
#198 = ORIENTED_EDGE( '', *, *, #266, .F. );
#199 = CARTESIAN_POINT( '', ( -8.67361737988404E-016, 19.0000000000000, 0.000000000000000 ) );
#200 = DIRECTION( '', ( -1.00000000000000, 0.000000000000000, 0.000000000000000 ) );
#201 = DIRECTION( '', ( 0.000000000000000, 0.000000000000000, 1.00000000000000 ) );
#202 = SURFACE_STYLE_FILL_AREA( #267 );
#203 = VERTEX_POINT( '', #268 );
#204 = ORIENTED_EDGE( '', *, *, #269, .F. );
#205 = CARTESIAN_POINT( '', ( 9.00000000000000, 13.0000000000000, 0.000000000000000 ) );
#206 = DIRECTION( '', ( -0.000000000000000, 1.00000000000000, 0.000000000000000 ) );
#207 = DIRECTION( '', ( 0.000000000000000, -0.000000000000000, 1.00000000000000 ) );
#208 = SURFACE_STYLE_FILL_AREA( #270 );
#209 = ORIENTED_EDGE( '', *, *, #265, .F. );
#210 = ORIENTED_EDGE( '', *, *, #271, .T. );
#211 = CARTESIAN_POINT( '', ( -14.4999999999996, 1.08420217248550E-013, 0.000000000000000 ) );
#212 = DIRECTION( '', ( 1.00000000000000, -0.000000000000000, -0.000000000000000 ) );
#213 = DIRECTION( '', ( 0.000000000000000, 1.00000000000000, 0.000000000000000 ) );
#214 = SURFACE_STYLE_FILL_AREA( #272 );
#215 = ORIENTED_EDGE( '', *, *, #269, .T. );
#216 = ORIENTED_EDGE( '', *, *, #273, .F. );
#217 = CARTESIAN_POINT( '', ( 9.00000000000000, 11.8452994616208, 0.000000000000000 ) );
#218 = DIRECTION( '', ( -0.000000000000000, 1.00000000000000, 0.000000000000000 ) );
#219 = DIRECTION( '', ( 0.000000000000000, 0.000000000000000, -1.00000000000000 ) );
#220 = SURFACE_STYLE_FILL_AREA( #274 );
#221 = ORIENTED_EDGE( '', *, *, #275, .T. );
#222 = ORIENTED_EDGE( '', *, *, #276, .F. );
#223 = ORIENTED_EDGE( '', *, *, #260, .F. );
#224 = CARTESIAN_POINT( '', ( 18.0000000000000, 9.90000000000000, 0.000000000000000 ) );
#225 = DIRECTION( '', ( 1.00000000000000, 0.000000000000000, -0.000000000000000 ) );
#226 = DIRECTION( '', ( -0.000000000000000, 0.000000000000000, -1.00000000000000 ) );
#227 = SURFACE_STYLE_FILL_AREA( #277 );
#228 = ORIENTED_EDGE( '', *, *, #266, .T. );
#229 = ORIENTED_EDGE( '', *, *, #273, .T. );
#230 = ORIENTED_EDGE( '', *, *, #275, .F. );
#231 = CARTESIAN_POINT( '', ( 134.000000000000, 0.000000000000000, 0.000000000000000 ) );
#232 = DIRECTION( '', ( -1.00000000000000, -0.000000000000000, 0.000000000000000 ) );
#233 = DIRECTION( '', ( -0.000000000000000, 0.000000000000000, -1.00000000000000 ) );
#234 = SURFACE_STYLE_FILL_AREA( #278 );
#235 = ORIENTED_EDGE( '', *, *, #259, .T. );
#236 = ORIENTED_EDGE( '', *, *, #262, .F. );
#237 = CARTESIAN_POINT( '', ( 134.000000000000, 0.000000000000000, 0.000000000000000 ) );
#238 = DIRECTION( '', ( -1.00000000000000, -0.000000000000000, 0.000000000000000 ) );
#239 = DIRECTION( '', ( -0.000000000000000, 0.000000000000000, -1.00000000000000 ) );
#240 = SURFACE_STYLE_FILL_AREA( #279 );
#241 = ORIENTED_EDGE( '', *, *, #263, .T. );
#242 = ORIENTED_EDGE( '', *, *, #271, .F. );
#243 = CARTESIAN_POINT( '', ( 0.869436963815112, 0.000000000000000, 0.000000000000000 ) );
#244 = DIRECTION( '', ( 1.00000000000000, -0.000000000000000, -0.000000000000000 ) );
#245 = DIRECTION( '', ( -0.000000000000000, 0.000000000000000, -1.00000000000000 ) );
#246 = SURFACE_STYLE_FILL_AREA( #280 );
#247 = ORIENTED_EDGE( '', *, *, #276, .T. );
#248 = ORIENTED_EDGE( '', *, *, #281, .F. );
#249 = CARTESIAN_POINT( '', ( 18.0000000000000, -15.0000000000000, 0.000000000000000 ) );
#250 = DIRECTION( '', ( -1.00000000000000, -0.000000000000000, 0.000000000000000 ) );
#251 = DIRECTION( '', ( -0.000000000000000, 0.000000000000000, -1.00000000000000 ) );
#252 = SURFACE_STYLE_FILL_AREA( #282 );
#253 = ORIENTED_EDGE( '', *, *, #281, .T. );
#254 = VERTEX_POINT( '', #283 );
#255 = CARTESIAN_POINT( '', ( 510.845299461621, -15.0000000000000, 0.000000000000000 ) );
#256 = DIRECTION( '', ( 1.00000000000000, -0.000000000000000, -0.000000000000000 ) );
#257 = DIRECTION( '', ( -0.000000000000000, 0.000000000000000, -1.00000000000000 ) );
#258 = FILL_AREA_STYLE( '', ( #284 ) );
#259 = EDGE_CURVE( '', #285, #285, #286, .T. );
#260 = EDGE_CURVE( '', #287, #287, #288, .T. );
#261 = FILL_AREA_STYLE( '', ( #289 ) );
#262 = EDGE_CURVE( '', #290, #290, #291, .T. );
#263 = EDGE_CURVE( '', #292, #292, #293, .T. );
#264 = FILL_AREA_STYLE( '', ( #294 ) );
#265 = EDGE_CURVE( '', #295, #295, #296, .T. );
#266 = EDGE_CURVE( '', #297, #297, #298, .T. );
#267 = FILL_AREA_STYLE( '', ( #299 ) );
#268 = CARTESIAN_POINT( '', ( 9.00000000000000, 11.8452994616208, 0.000000000000000 ) );
#269 = EDGE_CURVE( '', #300, #300, #301, .T. );
#270 = FILL_AREA_STYLE( '', ( #302 ) );
#271 = EDGE_CURVE( '', #303, #303, #304, .T. );
#272 = FILL_AREA_STYLE( '', ( #305 ) );
#273 = EDGE_CURVE( '', #306, #306, #307, .T. );
#274 = FILL_AREA_STYLE( '', ( #308 ) );
#275 = EDGE_CURVE( '', #309, #309, #310, .T. );
#276 = EDGE_CURVE( '', #311, #311, #312, .T. );
#277 = FILL_AREA_STYLE( '', ( #313 ) );
#278 = FILL_AREA_STYLE( '', ( #314 ) );
#279 = FILL_AREA_STYLE( '', ( #315 ) );
#280 = FILL_AREA_STYLE( '', ( #316 ) );
#281 = EDGE_CURVE( '', #317, #317, #318, .T. );
#282 = FILL_AREA_STYLE( '', ( #319 ) );
#283 = CARTESIAN_POINT( '', ( 10.8452994616207, -15.0000000000000, 0.000000000000000 ) );
#284 = FILL_AREA_STYLE_COLOUR( '', #320 );
#285 = VERTEX_POINT( '', #321 );
#286 = CIRCLE( '', #322, 9.00000000000000 );
#287 = VERTEX_POINT( '', #323 );
#288 = CIRCLE( '', #324, 9.90000000000000 );
#289 = FILL_AREA_STYLE_COLOUR( '', #325 );
#290 = VERTEX_POINT( '', #326 );
#291 = CIRCLE( '', #327, 9.00000000000000 );
#292 = VERTEX_POINT( '', #328 );
#293 = CIRCLE( '', #329, 3.16940028396168 );
#294 = FILL_AREA_STYLE_COLOUR( '', #330 );
#295 = VERTEX_POINT( '', #331 );
#296 = CIRCLE( '', #332, 5.47722557505167 );
#297 = VERTEX_POINT( '', #333 );
#298 = CIRCLE( '', #334, 19.0000000000000 );
#299 = FILL_AREA_STYLE_COLOUR( '', #335 );
#300 = VERTEX_POINT( '', #336 );
#301 = CIRCLE( '', #337, 2.00000000000000 );
#302 = FILL_AREA_STYLE_COLOUR( '', #338 );
#303 = VERTEX_POINT( '', #339 );
#304 = CIRCLE( '', #340, 2.00758746143562 );
#305 = FILL_AREA_STYLE_COLOUR( '', #341 );
#306 = VERTEX_POINT( '', #342 );
#307 = B_SPLINE_CURVE_WITH_KNOTS( '', 3, ( #343, #344, #345, #346, #347, #348, #349, #350, #351, #352, #353, #354, #355, #356, #357, #358, #359, #360, #361, #362, #363, #364, #365, #366, #367, #368, #369, #370, #371, #372, #373, #374, #375, #376, #377, #378, #379, #380, #381, #382, #383, #384, #385, #386, #387, #388, #389, #390, #391, #392, #393, #394, #395, #396 ), .UNSPECIFIED., .T., .F., ( 2, 2, 2, 2, 2, 2, 2, 2, 2, 2, 2, 2, 2, 2, 2, 2, 2, 2, 2, 2, 2, 2, 2, 2, 2, 2, 2, 2, 2 ), ( -0.000782063343185040, 0.000000000000000, 0.000391031671592522, 0.000782063343185044, 0.00117309501477757, 0.00156412668637009, 0.00234619002955513, 0.00312825337274017, 0.00351928504433269, 0.00391031671592521, 0.00430134838751773, 0.00469238005911025, 0.00508341173070277, 0.00547444340229528, 0.00586547507388780, 0.00625650674548032, 0.00703857008866537, 0.00782063343185040, 0.00821166510344292, 0.00860269677503544, 0.00899372844662796, 0.00938476011822048, 0.00977579178981300, 0.0101668234614055, 0.0105578551329980, 0.0109488868045906, 0.0117309501477756, 0.0125130134909606, 0.0129040451625532 ), .UNSPECIFIED. );
#308 = FILL_AREA_STYLE_COLOUR( '', #397 );
#309 = VERTEX_POINT( '', #398 );
#310 = CIRCLE( '', #399, 19.0000000000000 );
#311 = VERTEX_POINT( '', #400 );
#312 = CIRCLE( '', #401, 2.00000000000000 );
#313 = FILL_AREA_STYLE_COLOUR( '', #402 );
#314 = FILL_AREA_STYLE_COLOUR( '', #403 );
#315 = FILL_AREA_STYLE_COLOUR( '', #404 );
#316 = FILL_AREA_STYLE_COLOUR( '', #405 );
#317 = VERTEX_POINT( '', #406 );
#318 = CIRCLE( '', #407, 2.00000000000000 );
#319 = FILL_AREA_STYLE_COLOUR( '', #408 );
#320 = COLOUR_RGB( '', 0.000000000000000, 0.000000000000000, 0.000000000000000 );
#321 = CARTESIAN_POINT( '', ( 18.9000000000000, 0.000000000000000, -9.00000000000000 ) );
#322 = AXIS2_PLACEMENT_3D( '', #409, #410, #411 );
#323 = CARTESIAN_POINT( '', ( 18.0000000000000, 0.000000000000000, -9.90000000000000 ) );
#324 = AXIS2_PLACEMENT_3D( '', #412, #413, #414 );
#325 = COLOUR_RGB( '', 0.000000000000000, 0.000000000000000, 0.000000000000000 );
#326 = CARTESIAN_POINT( '', ( 134.000000000000, 0.000000000000000, -9.00000000000000 ) );
#327 = AXIS2_PLACEMENT_3D( '', #415, #416, #417 );
#328 = CARTESIAN_POINT( '', ( 134.000000000000, 0.000000000000000, -3.16940028396168 ) );
#329 = AXIS2_PLACEMENT_3D( '', #418, #419, #420 );
#330 = COLOUR_RGB( '', 0.000000000000000, 0.000000000000000, 0.000000000000000 );
#331 = CARTESIAN_POINT( '', ( 0.000000000000000, 0.000000000000000, -5.47722557505167 ) );
#332 = AXIS2_PLACEMENT_3D( '', #421, #422, #423 );
#333 = CARTESIAN_POINT( '', ( 0.000000000000000, 0.000000000000000, -19.0000000000000 ) );
#334 = AXIS2_PLACEMENT_3D( '', #424, #425, #426 );
#335 = COLOUR_RGB( '', 0.000000000000000, 0.000000000000000, 0.000000000000000 );
#336 = CARTESIAN_POINT( '', ( 9.00000000000000, 13.0000000000000, -2.00000000000000 ) );
#337 = AXIS2_PLACEMENT_3D( '', #427, #428, #429 );
#338 = COLOUR_RGB( '', 0.000000000000000, 0.000000000000000, 0.000000000000000 );
#339 = CARTESIAN_POINT( '', ( 0.869436963815112, 0.000000000000000, -2.00758746143562 ) );
#340 = AXIS2_PLACEMENT_3D( '', #430, #431, #432 );
#341 = COLOUR_RGB( '', 0.000000000000000, 0.000000000000000, 0.000000000000000 );
#342 = CARTESIAN_POINT( '', ( 11.0000000000000, 19.0000000000000, 0.000000000000000 ) );
#343 = CARTESIAN_POINT( '', ( 11.0000000000000, 19.0000000000000, -0.264455278648598 ) );
#344 = CARTESIAN_POINT( '', ( 11.0000000000000, 19.0000000000000, 0.132227639324300 ) );
#345 = CARTESIAN_POINT( '', ( 10.9870161143599, 18.9986208273384, 0.262227446366735 ) );
#346 = CARTESIAN_POINT( '', ( 10.9361597457390, 18.9933692341109, 0.517959179215420 ) );
#347 = CARTESIAN_POINT( '', ( 10.8976633861112, 18.9894346739481, 0.645023138961959 ) );
#348 = CARTESIAN_POINT( '', ( 10.7972449774168, 18.9796626002151, 0.887181868578114 ) );
#349 = CARTESIAN_POINT( '', ( 10.7358082555921, 18.9738716364427, 1.00202009714190 ) );
#350 = CARTESIAN_POINT( '', ( 10.5906749996823, 18.9611450479826, 1.21935541194668 ) );
#351 = CARTESIAN_POINT( '', ( 10.5062594233985, 18.9541648527042, 1.32218685239985 ) );
#352 = CARTESIAN_POINT( '', ( 10.2296807620620, 18.9335233389938, 1.59870801472876 ) );
#353 = CARTESIAN_POINT( '', ( 10.0066961531521, 18.9197155800397, 1.74768770813273 ) );
#354 = CARTESIAN_POINT( '', ( 9.52547049450405, 18.9002200972746, 1.94723656224279 ) );
#355 = CARTESIAN_POINT( '', ( 9.26215863961053, 18.8944588137879, 1.99985653355372 ) );
#356 = CARTESIAN_POINT( '', ( 8.87056587294728, 18.8944360823933, 2.00007128211324 ) );
#357 = CARTESIAN_POINT( '', ( 8.73796664847938, 18.8958252313366, 1.98707007458057 ) );
#358 = CARTESIAN_POINT( '', ( 8.48139444237679, 18.9011243427556, 1.93601581455450 ) );
#359 = CARTESIAN_POINT( '', ( 8.35668048220676, 18.9050049643213, 1.89824165167660 ) );
#360 = CARTESIAN_POINT( '', ( 8.11443038648786, 18.9147980755654, 1.79803999670685 ) );
#361 = CARTESIAN_POINT( '', ( 7.99742795066529, 18.9207150750112, 1.73545843931538 ) );
#362 = CARTESIAN_POINT( '', ( 7.78079757227759, 18.9334297684126, 1.59075835655009 ) );
#363 = CARTESIAN_POINT( '', ( 7.67978533809268, 18.9402822638554, 1.50813280931052 ) );
#364 = CARTESIAN_POINT( '', ( 7.49299053716427, 18.9542186070035, 1.32149680399064 ) );
#365 = CARTESIAN_POINT( '', ( 7.41029564756902, 18.9610641460683, 1.22057436710463 ) );
#366 = CARTESIAN_POINT( '', ( 7.26542788400729, 18.9737590911437, 1.00410222995044 ) );
#367 = CARTESIAN_POINT( '', ( 7.20275188949423, 18.9796628892048, 0.887177024620423 ) );
#368 = CARTESIAN_POINT( '', ( 7.10232760633061, 18.9894355664100, 0.644998705452978 ) );
#369 = CARTESIAN_POINT( '', ( 7.06445274221844, 18.9933065326269, 0.520338133148638 ) );
#370 = CARTESIAN_POINT( '', ( 7.01318289574190, 18.9985997394806, 0.263918082256237 ) );
#371 = CARTESIAN_POINT( '', ( 7.00004831115295, 18.9999949146158, 0.131300553558848 ) );
#372 = CARTESIAN_POINT( '', ( 6.99990378613313, 19.0000101277748, -0.260387226306305 ) );
#373 = CARTESIAN_POINT( '', ( 7.05227629593781, 18.9943097907890, -0.523692374676632 ) );
#374 = CARTESIAN_POINT( '', ( 7.25144640291721, 18.9749207240233, -1.00520726658188 ) );
#375 = CARTESIAN_POINT( '', ( 7.40023200886465, 18.9611581375464, -1.22830411046225 ) );
#376 = CARTESIAN_POINT( '', ( 7.67652976546060, 18.9405157937847, -1.50513244985222 ) );
#377 = CARTESIAN_POINT( '', ( 7.77929387730785, 18.9335250685747, -1.58963753640937 ) );
#378 = CARTESIAN_POINT( '', ( 7.99648162153878, 18.9207636532007, -1.73494143971211 ) );
#379 = CARTESIAN_POINT( '', ( 8.11124633813028, 18.9149481982504, -1.79646578501504 ) );
#380 = CARTESIAN_POINT( '', ( 8.35325348035851, 18.9051226743355, -1.89707441275985 ) );
#381 = CARTESIAN_POINT( '', ( 8.48032186393341, 18.9011568357664, -1.93569874768296 ) );
#382 = CARTESIAN_POINT( '', ( 8.73599869501248, 18.8958556581640, -1.98678089326727 ) );
#383 = CARTESIAN_POINT( '', ( 8.86595304320083, 18.8944569183408, -1.99987444022888 ) );
#384 = CARTESIAN_POINT( '', ( 9.13027366491090, 18.8944305254268, -2.00012378005427 ) );
#385 = CARTESIAN_POINT( '', ( 9.26044813096868, 18.8958060356655, -1.98724983152091 ) );
#386 = CARTESIAN_POINT( '', ( 9.51621675182776, 18.9010616697432, -1.93662474086679 ) );
#387 = CARTESIAN_POINT( '', ( 9.64325979139449, 18.9050027011113, -1.89826454074998 ) );
#388 = CARTESIAN_POINT( '', ( 9.88558205005945, 18.9147984270832, -1.79803666773125 ) );
#389 = CARTESIAN_POINT( '', ( 10.0004809332835, 18.9206020917967, -1.73669434852731 ) );
#390 = CARTESIAN_POINT( '', ( 10.2179129816778, 18.9333444866241, -1.59177803953043 ) );
#391 = CARTESIAN_POINT( '', ( 10.3208334212239, 18.9403309143269, -1.50744770550194 ) );
#392 = CARTESIAN_POINT( '', ( 10.5976333779071, 18.9609749032200, -1.23108311481303 ) );
#393 = CARTESIAN_POINT( '', ( 10.7467947293486, 18.9747566194399, -1.00824543910041 ) );
#394 = CARTESIAN_POINT( '', ( 10.9467714140782, 18.9942100619944, -0.527192330440143 ) );
#395 = CARTESIAN_POINT( '', ( 11.0000000000000, 19.0000000000000, -0.264455278648598 ) );
#396 = CARTESIAN_POINT( '', ( 11.0000000000000, 19.0000000000000, 0.132227639324300 ) );
#397 = COLOUR_RGB( '', 0.000000000000000, 0.000000000000000, 0.000000000000000 );
#398 = CARTESIAN_POINT( '', ( 18.0000000000000, 0.000000000000000, -19.0000000000000 ) );
#399 = AXIS2_PLACEMENT_3D( '', #433, #434, #435 );
#400 = CARTESIAN_POINT( '', ( 18.0000000000000, -15.0000000000000, -2.00000000000000 ) );
#401 = AXIS2_PLACEMENT_3D( '', #436, #437, #438 );
#402 = COLOUR_RGB( '', 0.000000000000000, 0.000000000000000, 0.000000000000000 );
#403 = COLOUR_RGB( '', 0.000000000000000, 0.000000000000000, 0.000000000000000 );
#404 = COLOUR_RGB( '', 0.000000000000000, 0.000000000000000, 0.000000000000000 );
#405 = COLOUR_RGB( '', 0.000000000000000, 0.000000000000000, 0.000000000000000 );
#406 = CARTESIAN_POINT( '', ( 12.0000000000000, -15.0000000000000, -2.00000000000000 ) );
#407 = AXIS2_PLACEMENT_3D( '', #439, #440, #441 );
#408 = COLOUR_RGB( '', 0.000000000000000, 0.000000000000000, 0.000000000000000 );
#409 = CARTESIAN_POINT( '', ( 18.9000000000000, 0.000000000000000, 0.000000000000000 ) );
#410 = DIRECTION( '', ( 1.00000000000000, 0.000000000000000, -0.000000000000000 ) );
#411 = DIRECTION( '', ( -0.000000000000000, 0.000000000000000, -1.00000000000000 ) );
#412 = CARTESIAN_POINT( '', ( 18.0000000000000, 0.000000000000000, 0.000000000000000 ) );
#413 = DIRECTION( '', ( 1.00000000000000, 0.000000000000000, -0.000000000000000 ) );
#414 = DIRECTION( '', ( -0.000000000000000, 0.000000000000000, -1.00000000000000 ) );
#415 = CARTESIAN_POINT( '', ( 134.000000000000, 0.000000000000000, 0.000000000000000 ) );
#416 = DIRECTION( '', ( 1.00000000000000, 0.000000000000000, -0.000000000000000 ) );
#417 = DIRECTION( '', ( -0.000000000000000, 0.000000000000000, -1.00000000000000 ) );
#418 = CARTESIAN_POINT( '', ( 134.000000000000, 0.000000000000000, 0.000000000000000 ) );
#419 = DIRECTION( '', ( 1.00000000000000, 0.000000000000000, -0.000000000000000 ) );
#420 = DIRECTION( '', ( -0.000000000000000, 0.000000000000000, -1.00000000000000 ) );
#421 = CARTESIAN_POINT( '', ( 0.000000000000000, 0.000000000000000, 0.000000000000000 ) );
#422 = DIRECTION( '', ( 1.00000000000000, 0.000000000000000, -0.000000000000000 ) );
#423 = DIRECTION( '', ( -0.000000000000000, 0.000000000000000, -1.00000000000000 ) );
#424 = CARTESIAN_POINT( '', ( 0.000000000000000, 0.000000000000000, 0.000000000000000 ) );
#425 = DIRECTION( '', ( 1.00000000000000, 0.000000000000000, -0.000000000000000 ) );
#426 = DIRECTION( '', ( -0.000000000000000, 0.000000000000000, -1.00000000000000 ) );
#427 = CARTESIAN_POINT( '', ( 9.00000000000000, 13.0000000000000, 0.000000000000000 ) );
#428 = DIRECTION( '', ( 0.000000000000000, -1.00000000000000, -0.000000000000000 ) );
#429 = DIRECTION( '', ( 0.000000000000000, 0.000000000000000, -1.00000000000000 ) );
#430 = CARTESIAN_POINT( '', ( 0.869436963815112, 0.000000000000000, 0.000000000000000 ) );
#431 = DIRECTION( '', ( 1.00000000000000, 0.000000000000000, -0.000000000000000 ) );
#432 = DIRECTION( '', ( -0.000000000000000, 0.000000000000000, -1.00000000000000 ) );
#433 = CARTESIAN_POINT( '', ( 18.0000000000000, 0.000000000000000, 0.000000000000000 ) );
#434 = DIRECTION( '', ( 1.00000000000000, 0.000000000000000, -0.000000000000000 ) );
#435 = DIRECTION( '', ( -0.000000000000000, 0.000000000000000, -1.00000000000000 ) );
#436 = CARTESIAN_POINT( '', ( 18.0000000000000, -15.0000000000000, 0.000000000000000 ) );
#437 = DIRECTION( '', ( 1.00000000000000, 0.000000000000000, -0.000000000000000 ) );
#438 = DIRECTION( '', ( -0.000000000000000, 0.000000000000000, -1.00000000000000 ) );
#439 = CARTESIAN_POINT( '', ( 12.0000000000000, -15.0000000000000, 0.000000000000000 ) );
#440 = DIRECTION( '', ( 1.00000000000000, 0.000000000000000, -0.000000000000000 ) );
#441 = DIRECTION( '', ( -0.000000000000000, 0.000000000000000, -1.00000000000000 ) );
ENDSEC;
END-ISO-10303-21;
