ISO-10303-21;
HEADER;
FILE_DESCRIPTION(('STEP AP214'),'1');
FILE_NAME('cctmp_C081B6D1-9A36-486C-842C-DA37A2884E94_2023_07_27_16_03_32_0324_39600..stp','2023-07-27T14:03:32',('Meusburger Georg GmbH & Co KG'),('CADClick - www.CADClick.com'),'Spatial InterOp 3D',' ','unknown authorization');
FILE_SCHEMA(('AUTOMOTIVE_DESIGN'));
ENDSEC;
DATA;
#1=MECHANICAL_DESIGN_GEOMETRIC_PRESENTATION_REPRESENTATION(' ',(#10,#11,#12,#13,#14,#15,#16,#17,#18,#19,#20,#21,#22,#23,#24,#25,#26,#27),#6);
#2=PRODUCT_DEFINITION_CONTEXT('',#28,'design');
#3=APPLICATION_PROTOCOL_DEFINITION('INTERNATIONAL STANDARD','automotive_design',1994,#28);
#4=PRODUCT_CATEGORY_RELATIONSHIP('NONE','NONE',#29,#30);
#5=SHAPE_DEFINITION_REPRESENTATION(#31,#32);
#6= (GEOMETRIC_REPRESENTATION_CONTEXT(3)GLOBAL_UNCERTAINTY_ASSIGNED_CONTEXT((#35))GLOBAL_UNIT_ASSIGNED_CONTEXT((#37,#38,#39))REPRESENTATION_CONTEXT('NONE','WORKSPACE'));
#10=STYLED_ITEM('',(#41),#42);
#11=STYLED_ITEM('',(#43),#44);
#12=STYLED_ITEM('',(#45),#46);
#13=STYLED_ITEM('',(#47),#48);
#14=STYLED_ITEM('',(#49),#50);
#15=STYLED_ITEM('',(#51),#52);
#16=STYLED_ITEM('',(#53),#54);
#17=STYLED_ITEM('',(#55),#56);
#18=STYLED_ITEM('',(#57),#58);
#19=STYLED_ITEM('',(#59),#60);
#20=STYLED_ITEM('',(#61),#62);
#21=STYLED_ITEM('',(#63),#64);
#22=STYLED_ITEM('',(#65),#66);
#23=STYLED_ITEM('',(#67),#68);
#24=STYLED_ITEM('',(#69),#70);
#25=STYLED_ITEM('',(#71),#72);
#26=STYLED_ITEM('',(#73),#74);
#27=STYLED_ITEM('',(#75),#76);
#28=APPLICATION_CONTEXT(' ');
#29=PRODUCT_CATEGORY('part','NONE');
#30=PRODUCT_RELATED_PRODUCT_CATEGORY('detail',' ',(#77));
#31=PRODUCT_DEFINITION_SHAPE('NONE','NONE',#78);
#32=ADVANCED_BREP_SHAPE_REPRESENTATION('E 3141_16_8_63',(#76,#79),#6);
#35=UNCERTAINTY_MEASURE_WITH_UNIT(LENGTH_MEASURE(1.0E-06),#37,'','');
#37= (CONVERSION_BASED_UNIT('MILLIMETRE',#82)LENGTH_UNIT()NAMED_UNIT(#85));
#38= (NAMED_UNIT(#87)PLANE_ANGLE_UNIT()SI_UNIT($,.RADIAN.));
#39= (NAMED_UNIT(#87)SOLID_ANGLE_UNIT()SI_UNIT($,.STERADIAN.));
#41=PRESENTATION_STYLE_ASSIGNMENT((#93));
#42=ADVANCED_FACE('',(#94),#95,.F.);
#43=PRESENTATION_STYLE_ASSIGNMENT((#96));
#44=ADVANCED_FACE('',(#97),#98,.F.);
#45=PRESENTATION_STYLE_ASSIGNMENT((#99));
#46=ADVANCED_FACE('',(#100),#101,.F.);
#47=PRESENTATION_STYLE_ASSIGNMENT((#102));
#48=ADVANCED_FACE('',(#103),#104,.F.);
#49=PRESENTATION_STYLE_ASSIGNMENT((#105));
#50=ADVANCED_FACE('',(#106),#107,.F.);
#51=PRESENTATION_STYLE_ASSIGNMENT((#108));
#52=ADVANCED_FACE('',(#109),#110,.F.);
#53=PRESENTATION_STYLE_ASSIGNMENT((#111));
#54=ADVANCED_FACE('',(#112),#113,.F.);
#55=PRESENTATION_STYLE_ASSIGNMENT((#114));
#56=ADVANCED_FACE('',(#115),#116,.F.);
#57=PRESENTATION_STYLE_ASSIGNMENT((#117));
#58=ADVANCED_FACE('',(#118,#119),#120,.F.);
#59=PRESENTATION_STYLE_ASSIGNMENT((#121));
#60=ADVANCED_FACE('',(#122),#123,.F.);
#61=PRESENTATION_STYLE_ASSIGNMENT((#124));
#62=ADVANCED_FACE('',(#125,#126),#127,.F.);
#63=PRESENTATION_STYLE_ASSIGNMENT((#128));
#64=ADVANCED_FACE('',(#129),#130,.F.);
#65=PRESENTATION_STYLE_ASSIGNMENT((#131));
#66=ADVANCED_FACE('',(#132),#133,.F.);
#67=PRESENTATION_STYLE_ASSIGNMENT((#134));
#68=ADVANCED_FACE('',(#135,#136,#137),#138,.T.);
#69=PRESENTATION_STYLE_ASSIGNMENT((#139));
#70=ADVANCED_FACE('',(#140,#141,#142),#143,.F.);
#71=PRESENTATION_STYLE_ASSIGNMENT((#144));
#72=ADVANCED_FACE('',(#145),#146,.F.);
#73=PRESENTATION_STYLE_ASSIGNMENT((#147));
#74=ADVANCED_FACE('',(#148),#149,.F.);
#75=PRESENTATION_STYLE_ASSIGNMENT((#150));
#76=MANIFOLD_SOLID_BREP('E 3141_16_8_63',#151);
#77=PRODUCT('E 3141_16_8_63','E 3141_16_8_63','PART-E 3141_16_8_63-DESC',(#152));
#78=PRODUCT_DEFINITION('','NONE',#153,#2);
#79=AXIS2_PLACEMENT_3D('',#154,#155,#156);
#82=LENGTH_MEASURE_WITH_UNIT(LENGTH_MEASURE(1.0),#157);
#85=DIMENSIONAL_EXPONENTS(1.0,0.0,0.0,0.0,0.0,0.0,0.0);
#87=DIMENSIONAL_EXPONENTS(0.0,0.0,0.0,0.0,0.0,0.0,0.0);
#93=SURFACE_STYLE_USAGE(.BOTH.,#158);
#94=FACE_OUTER_BOUND('',#159,.T.);
#95=CYLINDRICAL_SURFACE('',#160,2.75);
#96=SURFACE_STYLE_USAGE(.BOTH.,#161);
#97=FACE_OUTER_BOUND('',#162,.T.);
#98=CYLINDRICAL_SURFACE('',#163,2.75);
#99=SURFACE_STYLE_USAGE(.BOTH.,#164);
#100=FACE_OUTER_BOUND('',#165,.T.);
#101=CYLINDRICAL_SURFACE('',#166,4.75);
#102=SURFACE_STYLE_USAGE(.BOTH.,#167);
#103=FACE_OUTER_BOUND('',#168,.T.);
#104=CYLINDRICAL_SURFACE('',#169,4.75);
#105=SURFACE_STYLE_USAGE(.BOTH.,#170);
#106=FACE_OUTER_BOUND('',#171,.T.);
#107=PLANE('',#172);
#108=SURFACE_STYLE_USAGE(.BOTH.,#173);
#109=FACE_OUTER_BOUND('',#174,.T.);
#110=PLANE('',#175);
#111=SURFACE_STYLE_USAGE(.BOTH.,#176);
#112=FACE_OUTER_BOUND('',#177,.T.);
#113=PLANE('',#178);
#114=SURFACE_STYLE_USAGE(.BOTH.,#179);
#115=FACE_OUTER_BOUND('',#180,.T.);
#116=CYLINDRICAL_SURFACE('',#181,4.75);
#117=SURFACE_STYLE_USAGE(.BOTH.,#182);
#118=FACE_BOUND('',#183,.T.);
#119=FACE_OUTER_BOUND('',#184,.T.);
#120=PLANE('',#185);
#121=SURFACE_STYLE_USAGE(.BOTH.,#186);
#122=FACE_OUTER_BOUND('',#187,.T.);
#123=CYLINDRICAL_SURFACE('',#188,4.75);
#124=SURFACE_STYLE_USAGE(.BOTH.,#189);
#125=FACE_BOUND('',#190,.T.);
#126=FACE_OUTER_BOUND('',#191,.T.);
#127=PLANE('',#192);
#128=SURFACE_STYLE_USAGE(.BOTH.,#193);
#129=FACE_OUTER_BOUND('',#194,.T.);
#130=CYLINDRICAL_SURFACE('',#195,2.75);
#131=SURFACE_STYLE_USAGE(.BOTH.,#196);
#132=FACE_OUTER_BOUND('',#197,.T.);
#133=CYLINDRICAL_SURFACE('',#198,2.75);
#134=SURFACE_STYLE_USAGE(.BOTH.,#199);
#135=FACE_BOUND('',#200,.T.);
#136=FACE_BOUND('',#201,.T.);
#137=FACE_OUTER_BOUND('',#202,.T.);
#138=PLANE('',#203);
#139=SURFACE_STYLE_USAGE(.BOTH.,#204);
#140=FACE_OUTER_BOUND('',#205,.T.);
#141=FACE_BOUND('',#206,.T.);
#142=FACE_BOUND('',#207,.T.);
#143=PLANE('',#208);
#144=SURFACE_STYLE_USAGE(.BOTH.,#209);
#145=FACE_OUTER_BOUND('',#210,.T.);
#146=PLANE('',#211);
#147=SURFACE_STYLE_USAGE(.BOTH.,#212);
#148=FACE_OUTER_BOUND('',#213,.T.);
#149=PLANE('',#214);
#150=SURFACE_STYLE_USAGE(.BOTH.,#215);
#151=CLOSED_SHELL('',(#42,#44,#46,#48,#50,#52,#54,#56,#58,#60,#62,#64,#66,#68,#70,#72,#74));
#152=PRODUCT_CONTEXT('',#28,'mechanical');
#153=PRODUCT_DEFINITION_FORMATION_WITH_SPECIFIED_SOURCE(' ','NONE',#77,.NOT_KNOWN.);
#154=CARTESIAN_POINT('',(0.0,0.0,0.0));
#155=DIRECTION('',(0.0,0.0,1.0));
#156=DIRECTION('',(1.0,0.0,0.0));
#157= (NAMED_UNIT(#85)LENGTH_UNIT()SI_UNIT(.MILLI.,.METRE.));
#158=SURFACE_SIDE_STYLE('',(#217));
#159=EDGE_LOOP('',(#218,#219,#220,#221));
#160=AXIS2_PLACEMENT_3D('',#222,#223,#224);
#161=SURFACE_SIDE_STYLE('',(#225));
#162=EDGE_LOOP('',(#226,#227,#228,#229));
#163=AXIS2_PLACEMENT_3D('',#230,#231,#232);
#164=SURFACE_SIDE_STYLE('',(#233));
#165=EDGE_LOOP('',(#234,#235,#236,#237));
#166=AXIS2_PLACEMENT_3D('',#238,#239,#240);
#167=SURFACE_SIDE_STYLE('',(#241));
#168=EDGE_LOOP('',(#242,#243,#244,#245));
#169=AXIS2_PLACEMENT_3D('',#246,#247,#248);
#170=SURFACE_SIDE_STYLE('',(#249));
#171=EDGE_LOOP('',(#250,#251,#252,#253));
#172=AXIS2_PLACEMENT_3D('',#254,#255,#256);
#173=SURFACE_SIDE_STYLE('',(#257));
#174=EDGE_LOOP('',(#258,#259,#260,#261));
#175=AXIS2_PLACEMENT_3D('',#262,#263,#264);
#176=SURFACE_SIDE_STYLE('',(#265));
#177=EDGE_LOOP('',(#266,#267,#268,#269,#270));
#178=AXIS2_PLACEMENT_3D('',#271,#272,#273);
#179=SURFACE_SIDE_STYLE('',(#274));
#180=EDGE_LOOP('',(#275,#276,#277,#278));
#181=AXIS2_PLACEMENT_3D('',#279,#280,#281);
#182=SURFACE_SIDE_STYLE('',(#282));
#183=EDGE_LOOP('',(#283,#284));
#184=EDGE_LOOP('',(#285,#286));
#185=AXIS2_PLACEMENT_3D('',#287,#288,#289);
#186=SURFACE_SIDE_STYLE('',(#290));
#187=EDGE_LOOP('',(#291,#292,#293,#294));
#188=AXIS2_PLACEMENT_3D('',#295,#296,#297);
#189=SURFACE_SIDE_STYLE('',(#298));
#190=EDGE_LOOP('',(#299,#300));
#191=EDGE_LOOP('',(#301,#302));
#192=AXIS2_PLACEMENT_3D('',#303,#304,#305);
#193=SURFACE_SIDE_STYLE('',(#306));
#194=EDGE_LOOP('',(#307,#308,#309,#310));
#195=AXIS2_PLACEMENT_3D('',#311,#312,#313);
#196=SURFACE_SIDE_STYLE('',(#314));
#197=EDGE_LOOP('',(#315,#316,#317,#318));
#198=AXIS2_PLACEMENT_3D('',#319,#320,#321);
#199=SURFACE_SIDE_STYLE('',(#322));
#200=EDGE_LOOP('',(#323,#324));
#201=EDGE_LOOP('',(#325,#326));
#202=EDGE_LOOP('',(#327,#328,#329,#330));
#203=AXIS2_PLACEMENT_3D('',#331,#332,#333);
#204=SURFACE_SIDE_STYLE('',(#334));
#205=EDGE_LOOP('',(#335,#336,#337,#338));
#206=EDGE_LOOP('',(#339,#340));
#207=EDGE_LOOP('',(#341,#342));
#208=AXIS2_PLACEMENT_3D('',#343,#344,#345);
#209=SURFACE_SIDE_STYLE('',(#346));
#210=EDGE_LOOP('',(#347,#348,#349,#350,#351));
#211=AXIS2_PLACEMENT_3D('',#352,#353,#354);
#212=SURFACE_SIDE_STYLE('',(#355));
#213=EDGE_LOOP('',(#356,#357,#358,#359));
#214=AXIS2_PLACEMENT_3D('',#360,#361,#362);
#215=SURFACE_SIDE_STYLE('',(#363));
#217=SURFACE_STYLE_FILL_AREA(#364);
#218=ORIENTED_EDGE('',*,*,#365,.F.);
#219=ORIENTED_EDGE('',*,*,#366,.T.);
#220=ORIENTED_EDGE('',*,*,#367,.F.);
#221=ORIENTED_EDGE('',*,*,#368,.F.);
#222=CARTESIAN_POINT('',(6.0,8.0,4.0));
#223=DIRECTION('',(0.0,0.0,1.0));
#224=DIRECTION('',(1.0,0.0,0.0));
#225=SURFACE_STYLE_FILL_AREA(#369);
#226=ORIENTED_EDGE('',*,*,#370,.F.);
#227=ORIENTED_EDGE('',*,*,#371,.T.);
#228=ORIENTED_EDGE('',*,*,#372,.F.);
#229=ORIENTED_EDGE('',*,*,#373,.F.);
#230=CARTESIAN_POINT('',(6.0,55.0,4.0));
#231=DIRECTION('',(0.0,0.0,1.0));
#232=DIRECTION('',(1.0,0.0,0.0));
#233=SURFACE_STYLE_FILL_AREA(#374);
#234=ORIENTED_EDGE('',*,*,#375,.F.);
#235=ORIENTED_EDGE('',*,*,#376,.F.);
#236=ORIENTED_EDGE('',*,*,#377,.F.);
#237=ORIENTED_EDGE('',*,*,#378,.T.);
#238=CARTESIAN_POINT('',(6.0,8.0,5.75));
#239=DIRECTION('',(0.0,0.0,1.0));
#240=DIRECTION('',(1.0,0.0,0.0));
#241=SURFACE_STYLE_FILL_AREA(#379);
#242=ORIENTED_EDGE('',*,*,#380,.F.);
#243=ORIENTED_EDGE('',*,*,#381,.F.);
#244=ORIENTED_EDGE('',*,*,#382,.F.);
#245=ORIENTED_EDGE('',*,*,#383,.T.);
#246=CARTESIAN_POINT('',(6.0,55.0,5.75));
#247=DIRECTION('',(0.0,0.0,1.0));
#248=DIRECTION('',(1.0,0.0,0.0));
#249=SURFACE_STYLE_FILL_AREA(#384);
#250=ORIENTED_EDGE('',*,*,#385,.F.);
#251=ORIENTED_EDGE('',*,*,#386,.F.);
#252=ORIENTED_EDGE('',*,*,#387,.F.);
#253=ORIENTED_EDGE('',*,*,#388,.F.);
#254=CARTESIAN_POINT('',(15.7,0.0,0.3));
#255=DIRECTION('',(-0.707106781186547,0.0,0.707106781186547));
#256=DIRECTION('',(0.707106781186548,0.0,0.707106781186548));
#257=SURFACE_STYLE_FILL_AREA(#389);
#258=ORIENTED_EDGE('',*,*,#386,.T.);
#259=ORIENTED_EDGE('',*,*,#390,.F.);
#260=ORIENTED_EDGE('',*,*,#391,.F.);
#261=ORIENTED_EDGE('',*,*,#392,.T.);
#262=CARTESIAN_POINT('',(16.0,31.5,4.0));
#263=DIRECTION('',(-1.0,0.0,0.0));
#264=DIRECTION('',(0.0,0.0,1.0));
#265=SURFACE_STYLE_FILL_AREA(#393);
#266=ORIENTED_EDGE('',*,*,#385,.T.);
#267=ORIENTED_EDGE('',*,*,#394,.F.);
#268=ORIENTED_EDGE('',*,*,#395,.F.);
#269=ORIENTED_EDGE('',*,*,#396,.F.);
#270=ORIENTED_EDGE('',*,*,#390,.T.);
#271=CARTESIAN_POINT('',(8.0,63.0,4.0));
#272=DIRECTION('',(0.0,-1.0,0.0));
#273=DIRECTION('',(0.0,0.0,-1.0));
#274=SURFACE_STYLE_FILL_AREA(#397);
#275=ORIENTED_EDGE('',*,*,#380,.T.);
#276=ORIENTED_EDGE('',*,*,#398,.T.);
#277=ORIENTED_EDGE('',*,*,#382,.T.);
#278=ORIENTED_EDGE('',*,*,#399,.F.);
#279=CARTESIAN_POINT('',(6.0,55.0,5.75));
#280=DIRECTION('',(0.0,0.0,1.0));
#281=DIRECTION('',(1.0,0.0,0.0));
#282=SURFACE_STYLE_FILL_AREA(#400);
#283=ORIENTED_EDGE('',*,*,#401,.F.);
#284=ORIENTED_EDGE('',*,*,#371,.F.);
#285=ORIENTED_EDGE('',*,*,#398,.F.);
#286=ORIENTED_EDGE('',*,*,#383,.F.);
#287=CARTESIAN_POINT('',(6.0,55.0,3.5));
#288=DIRECTION('',(0.0,0.0,-1.0));
#289=DIRECTION('',(-1.0,0.0,0.0));
#290=SURFACE_STYLE_FILL_AREA(#402);
#291=ORIENTED_EDGE('',*,*,#375,.T.);
#292=ORIENTED_EDGE('',*,*,#403,.T.);
#293=ORIENTED_EDGE('',*,*,#377,.T.);
#294=ORIENTED_EDGE('',*,*,#404,.F.);
#295=CARTESIAN_POINT('',(6.0,8.0,5.75));
#296=DIRECTION('',(0.0,0.0,1.0));
#297=DIRECTION('',(1.0,0.0,0.0));
#298=SURFACE_STYLE_FILL_AREA(#405);
#299=ORIENTED_EDGE('',*,*,#406,.F.);
#300=ORIENTED_EDGE('',*,*,#366,.F.);
#301=ORIENTED_EDGE('',*,*,#403,.F.);
#302=ORIENTED_EDGE('',*,*,#378,.F.);
#303=CARTESIAN_POINT('',(6.0,8.0,3.5));
#304=DIRECTION('',(0.0,0.0,-1.0));
#305=DIRECTION('',(-1.0,0.0,0.0));
#306=SURFACE_STYLE_FILL_AREA(#407);
#307=ORIENTED_EDGE('',*,*,#370,.T.);
#308=ORIENTED_EDGE('',*,*,#408,.F.);
#309=ORIENTED_EDGE('',*,*,#372,.T.);
#310=ORIENTED_EDGE('',*,*,#401,.T.);
#311=CARTESIAN_POINT('',(6.0,55.0,4.0));
#312=DIRECTION('',(0.0,0.0,1.0));
#313=DIRECTION('',(1.0,0.0,0.0));
#314=SURFACE_STYLE_FILL_AREA(#409);
#315=ORIENTED_EDGE('',*,*,#365,.T.);
#316=ORIENTED_EDGE('',*,*,#410,.F.);
#317=ORIENTED_EDGE('',*,*,#367,.T.);
#318=ORIENTED_EDGE('',*,*,#406,.T.);
#319=CARTESIAN_POINT('',(6.0,8.0,4.0));
#320=DIRECTION('',(0.0,0.0,1.0));
#321=DIRECTION('',(1.0,0.0,0.0));
#322=SURFACE_STYLE_FILL_AREA(#411);
#323=ORIENTED_EDGE('',*,*,#399,.T.);
#324=ORIENTED_EDGE('',*,*,#381,.T.);
#325=ORIENTED_EDGE('',*,*,#404,.T.);
#326=ORIENTED_EDGE('',*,*,#376,.T.);
#327=ORIENTED_EDGE('',*,*,#391,.T.);
#328=ORIENTED_EDGE('',*,*,#396,.T.);
#329=ORIENTED_EDGE('',*,*,#412,.T.);
#330=ORIENTED_EDGE('',*,*,#413,.T.);
#331=CARTESIAN_POINT('',(8.0,31.5,8.0));
#332=DIRECTION('',(0.0,0.0,1.0));
#333=DIRECTION('',(1.0,0.0,0.0));
#334=SURFACE_STYLE_FILL_AREA(#414);
#335=ORIENTED_EDGE('',*,*,#388,.T.);
#336=ORIENTED_EDGE('',*,*,#415,.T.);
#337=ORIENTED_EDGE('',*,*,#416,.T.);
#338=ORIENTED_EDGE('',*,*,#394,.T.);
#339=ORIENTED_EDGE('',*,*,#373,.T.);
#340=ORIENTED_EDGE('',*,*,#408,.T.);
#341=ORIENTED_EDGE('',*,*,#368,.T.);
#342=ORIENTED_EDGE('',*,*,#410,.T.);
#343=CARTESIAN_POINT('',(8.0,31.5,0.0));
#344=DIRECTION('',(0.0,0.0,1.0));
#345=DIRECTION('',(1.0,0.0,0.0));
#346=SURFACE_STYLE_FILL_AREA(#417);
#347=ORIENTED_EDGE('',*,*,#387,.T.);
#348=ORIENTED_EDGE('',*,*,#392,.F.);
#349=ORIENTED_EDGE('',*,*,#413,.F.);
#350=ORIENTED_EDGE('',*,*,#418,.T.);
#351=ORIENTED_EDGE('',*,*,#415,.F.);
#352=CARTESIAN_POINT('',(8.0,0.0,4.0));
#353=DIRECTION('',(0.0,1.0,0.0));
#354=DIRECTION('',(0.0,0.0,1.0));
#355=SURFACE_STYLE_FILL_AREA(#419);
#356=ORIENTED_EDGE('',*,*,#395,.T.);
#357=ORIENTED_EDGE('',*,*,#416,.F.);
#358=ORIENTED_EDGE('',*,*,#418,.F.);
#359=ORIENTED_EDGE('',*,*,#412,.F.);
#360=CARTESIAN_POINT('',(0.0,31.5,4.0));
#361=DIRECTION('',(1.0,0.0,0.0));
#362=DIRECTION('',(0.0,0.0,-1.0));
#363=SURFACE_STYLE_FILL_AREA(#420);
#364=FILL_AREA_STYLE('',(#421));
#365=EDGE_CURVE('',#422,#423,#424,.T.);
#366=EDGE_CURVE('',#422,#425,#426,.T.);
#367=EDGE_CURVE('',#427,#425,#428,.T.);
#368=EDGE_CURVE('',#423,#427,#429,.T.);
#369=FILL_AREA_STYLE('',(#430));
#370=EDGE_CURVE('',#431,#432,#433,.T.);
#371=EDGE_CURVE('',#431,#434,#435,.T.);
#372=EDGE_CURVE('',#436,#434,#437,.T.);
#373=EDGE_CURVE('',#432,#436,#438,.T.);
#374=FILL_AREA_STYLE('',(#439));
#375=EDGE_CURVE('',#440,#441,#442,.T.);
#376=EDGE_CURVE('',#443,#440,#444,.T.);
#377=EDGE_CURVE('',#445,#443,#446,.T.);
#378=EDGE_CURVE('',#445,#441,#447,.T.);
#379=FILL_AREA_STYLE('',(#448));
#380=EDGE_CURVE('',#449,#450,#451,.T.);
#381=EDGE_CURVE('',#452,#449,#453,.T.);
#382=EDGE_CURVE('',#454,#452,#455,.T.);
#383=EDGE_CURVE('',#454,#450,#456,.T.);
#384=FILL_AREA_STYLE('',(#457));
#385=EDGE_CURVE('',#458,#459,#460,.T.);
#386=EDGE_CURVE('',#461,#458,#462,.T.);
#387=EDGE_CURVE('',#463,#461,#464,.T.);
#388=EDGE_CURVE('',#459,#463,#465,.T.);
#389=FILL_AREA_STYLE('',(#466));
#390=EDGE_CURVE('',#467,#458,#468,.T.);
#391=EDGE_CURVE('',#469,#467,#470,.T.);
#392=EDGE_CURVE('',#469,#461,#471,.T.);
#393=FILL_AREA_STYLE('',(#472));
#394=EDGE_CURVE('',#473,#459,#474,.T.);
#395=EDGE_CURVE('',#475,#473,#476,.T.);
#396=EDGE_CURVE('',#467,#475,#477,.T.);
#397=FILL_AREA_STYLE('',(#478));
#398=EDGE_CURVE('',#450,#454,#479,.T.);
#399=EDGE_CURVE('',#449,#452,#480,.T.);
#400=FILL_AREA_STYLE('',(#481));
#401=EDGE_CURVE('',#434,#431,#482,.T.);
#402=FILL_AREA_STYLE('',(#483));
#403=EDGE_CURVE('',#441,#445,#484,.T.);
#404=EDGE_CURVE('',#440,#443,#485,.T.);
#405=FILL_AREA_STYLE('',(#486));
#406=EDGE_CURVE('',#425,#422,#487,.T.);
#407=FILL_AREA_STYLE('',(#488));
#408=EDGE_CURVE('',#436,#432,#489,.T.);
#409=FILL_AREA_STYLE('',(#490));
#410=EDGE_CURVE('',#427,#423,#491,.T.);
#411=FILL_AREA_STYLE('',(#492));
#412=EDGE_CURVE('',#475,#493,#494,.T.);
#413=EDGE_CURVE('',#493,#469,#495,.T.);
#414=FILL_AREA_STYLE('',(#496));
#415=EDGE_CURVE('',#463,#497,#498,.T.);
#416=EDGE_CURVE('',#497,#473,#499,.T.);
#417=FILL_AREA_STYLE('',(#500));
#418=EDGE_CURVE('',#493,#497,#501,.T.);
#419=FILL_AREA_STYLE('',(#502));
#420=FILL_AREA_STYLE('',(#503));
#421=FILL_AREA_STYLE_COLOUR('',#504);
#422=VERTEX_POINT('',#505);
#423=VERTEX_POINT('',#506);
#424=LINE('',#507,#508);
#425=VERTEX_POINT('',#509);
#426=CIRCLE('',#510,2.75);
#427=VERTEX_POINT('',#511);
#428=LINE('',#512,#513);
#429=CIRCLE('',#514,2.75);
#430=FILL_AREA_STYLE_COLOUR('',#515);
#431=VERTEX_POINT('',#516);
#432=VERTEX_POINT('',#517);
#433=LINE('',#518,#519);
#434=VERTEX_POINT('',#520);
#435=CIRCLE('',#521,2.75);
#436=VERTEX_POINT('',#522);
#437=LINE('',#523,#524);
#438=CIRCLE('',#525,2.75);
#439=FILL_AREA_STYLE_COLOUR('',#526);
#440=VERTEX_POINT('',#527);
#441=VERTEX_POINT('',#528);
#442=LINE('',#529,#530);
#443=VERTEX_POINT('',#531);
#444=CIRCLE('',#532,4.75);
#445=VERTEX_POINT('',#533);
#446=LINE('',#534,#535);
#447=CIRCLE('',#536,4.75);
#448=FILL_AREA_STYLE_COLOUR('',#537);
#449=VERTEX_POINT('',#538);
#450=VERTEX_POINT('',#539);
#451=LINE('',#540,#541);
#452=VERTEX_POINT('',#542);
#453=CIRCLE('',#543,4.75);
#454=VERTEX_POINT('',#544);
#455=LINE('',#545,#546);
#456=CIRCLE('',#547,4.75);
#457=FILL_AREA_STYLE_COLOUR('',#548);
#458=VERTEX_POINT('',#549);
#459=VERTEX_POINT('',#550);
#460=LINE('',#551,#552);
#461=VERTEX_POINT('',#553);
#462=LINE('',#554,#555);
#463=VERTEX_POINT('',#556);
#464=LINE('',#557,#558);
#465=LINE('',#559,#560);
#466=FILL_AREA_STYLE_COLOUR('',#561);
#467=VERTEX_POINT('',#562);
#468=LINE('',#563,#564);
#469=VERTEX_POINT('',#565);
#470=LINE('',#566,#567);
#471=LINE('',#568,#569);
#472=FILL_AREA_STYLE_COLOUR('',#570);
#473=VERTEX_POINT('',#571);
#474=LINE('',#572,#573);
#475=VERTEX_POINT('',#574);
#476=LINE('',#575,#576);
#477=LINE('',#577,#578);
#478=FILL_AREA_STYLE_COLOUR('',#579);
#479=CIRCLE('',#580,4.75);
#480=CIRCLE('',#581,4.75);
#481=FILL_AREA_STYLE_COLOUR('',#582);
#482=CIRCLE('',#583,2.75);
#483=FILL_AREA_STYLE_COLOUR('',#584);
#484=CIRCLE('',#585,4.75);
#485=CIRCLE('',#586,4.75);
#486=FILL_AREA_STYLE_COLOUR('',#587);
#487=CIRCLE('',#588,2.75);
#488=FILL_AREA_STYLE_COLOUR('',#589);
#489=CIRCLE('',#590,2.75);
#490=FILL_AREA_STYLE_COLOUR('',#591);
#491=CIRCLE('',#592,2.75);
#492=FILL_AREA_STYLE_COLOUR('',#593);
#493=VERTEX_POINT('',#594);
#494=LINE('',#595,#596);
#495=LINE('',#597,#598);
#496=FILL_AREA_STYLE_COLOUR('',#599);
#497=VERTEX_POINT('',#600);
#498=LINE('',#601,#602);
#499=LINE('',#603,#604);
#500=FILL_AREA_STYLE_COLOUR('',#605);
#501=LINE('',#606,#607);
#502=FILL_AREA_STYLE_COLOUR('',#608);
#503=FILL_AREA_STYLE_COLOUR('',#609);
#504=COLOUR_RGB('',0.69803923368454,0.69803923368454,0.69803923368454);
#505=CARTESIAN_POINT('',(8.75,8.0,3.5));
#506=CARTESIAN_POINT('',(8.75,8.0,0.0));
#507=CARTESIAN_POINT('',(8.75,8.0,1.75));
#508=VECTOR('',#610,1.0);
#509=CARTESIAN_POINT('',(3.25,8.0,3.5));
#510=AXIS2_PLACEMENT_3D('',#611,#612,#613);
#511=CARTESIAN_POINT('',(3.25,8.0,0.0));
#512=CARTESIAN_POINT('',(3.25,8.0,1.75));
#513=VECTOR('',#614,1.0);
#514=AXIS2_PLACEMENT_3D('',#615,#616,#617);
#515=COLOUR_RGB('',0.69803923368454,0.69803923368454,0.69803923368454);
#516=CARTESIAN_POINT('',(8.75,55.0,3.5));
#517=CARTESIAN_POINT('',(8.75,55.0,0.0));
#518=CARTESIAN_POINT('',(8.75,55.0,1.75));
#519=VECTOR('',#618,1.0);
#520=CARTESIAN_POINT('',(3.25,55.0,3.5));
#521=AXIS2_PLACEMENT_3D('',#619,#620,#621);
#522=CARTESIAN_POINT('',(3.25,55.0,0.0));
#523=CARTESIAN_POINT('',(3.25,55.0,1.75));
#524=VECTOR('',#622,1.0);
#525=AXIS2_PLACEMENT_3D('',#623,#624,#625);
#526=COLOUR_RGB('',0.69803923368454,0.69803923368454,0.69803923368454);
#527=CARTESIAN_POINT('',(10.75,8.0,8.0));
#528=CARTESIAN_POINT('',(10.75,8.0,3.5));
#529=CARTESIAN_POINT('',(10.75,8.0,5.75));
#530=VECTOR('',#626,1.0);
#531=CARTESIAN_POINT('',(1.25,8.0,8.0));
#532=AXIS2_PLACEMENT_3D('',#627,#628,#629);
#533=CARTESIAN_POINT('',(1.25,8.0,3.5));
#534=CARTESIAN_POINT('',(1.25,8.0,5.75));
#535=VECTOR('',#630,1.0);
#536=AXIS2_PLACEMENT_3D('',#631,#632,#633);
#537=COLOUR_RGB('',0.69803923368454,0.69803923368454,0.69803923368454);
#538=CARTESIAN_POINT('',(10.75,55.0,8.0));
#539=CARTESIAN_POINT('',(10.75,55.0,3.5));
#540=CARTESIAN_POINT('',(10.75,55.0,5.75));
#541=VECTOR('',#634,1.0);
#542=CARTESIAN_POINT('',(1.25,55.0,8.0));
#543=AXIS2_PLACEMENT_3D('',#635,#636,#637);
#544=CARTESIAN_POINT('',(1.25,55.0,3.5));
#545=CARTESIAN_POINT('',(1.25,55.0,5.75));
#546=VECTOR('',#638,1.0);
#547=AXIS2_PLACEMENT_3D('',#639,#640,#641);
#548=COLOUR_RGB('',0.69803923368454,0.69803923368454,0.69803923368454);
#549=CARTESIAN_POINT('',(16.0,63.0,0.6));
#550=CARTESIAN_POINT('',(15.4,63.0,0.0));
#551=CARTESIAN_POINT('',(14.7,63.0,-0.699999999999999));
#552=VECTOR('',#642,1.0);
#553=CARTESIAN_POINT('',(16.0,0.0,0.6));
#554=CARTESIAN_POINT('',(16.0,15.75,0.6));
#555=VECTOR('',#643,1.0);
#556=CARTESIAN_POINT('',(15.4,0.0,0.0));
#557=CARTESIAN_POINT('',(14.7,0.0,-0.699999999999999));
#558=VECTOR('',#644,1.0);
#559=CARTESIAN_POINT('',(15.4,15.75,0.0));
#560=VECTOR('',#645,1.0);
#561=COLOUR_RGB('',0.69803923368454,0.69803923368454,0.69803923368454);
#562=CARTESIAN_POINT('',(16.0,63.0,8.0));
#563=CARTESIAN_POINT('',(16.0,63.0,4.0));
#564=VECTOR('',#646,1.0);
#565=CARTESIAN_POINT('',(16.0,0.0,8.0));
#566=CARTESIAN_POINT('',(16.0,31.5,8.0));
#567=VECTOR('',#647,1.0);
#568=CARTESIAN_POINT('',(16.0,0.0,4.0));
#569=VECTOR('',#648,1.0);
#570=COLOUR_RGB('',0.69803923368454,0.69803923368454,0.69803923368454);
#571=CARTESIAN_POINT('',(0.0,63.0,0.0));
#572=CARTESIAN_POINT('',(8.0,63.0,0.0));
#573=VECTOR('',#649,1.0);
#574=CARTESIAN_POINT('',(0.0,63.0,8.0));
#575=CARTESIAN_POINT('',(0.0,63.0,4.0));
#576=VECTOR('',#650,1.0);
#577=CARTESIAN_POINT('',(8.0,63.0,8.0));
#578=VECTOR('',#651,1.0);
#579=COLOUR_RGB('',0.69803923368454,0.69803923368454,0.69803923368454);
#580=AXIS2_PLACEMENT_3D('',#652,#653,#654);
#581=AXIS2_PLACEMENT_3D('',#655,#656,#657);
#582=COLOUR_RGB('',0.69803923368454,0.69803923368454,0.69803923368454);
#583=AXIS2_PLACEMENT_3D('',#658,#659,#660);
#584=COLOUR_RGB('',0.69803923368454,0.69803923368454,0.69803923368454);
#585=AXIS2_PLACEMENT_3D('',#661,#662,#663);
#586=AXIS2_PLACEMENT_3D('',#664,#665,#666);
#587=COLOUR_RGB('',0.69803923368454,0.69803923368454,0.69803923368454);
#588=AXIS2_PLACEMENT_3D('',#667,#668,#669);
#589=COLOUR_RGB('',0.69803923368454,0.69803923368454,0.69803923368454);
#590=AXIS2_PLACEMENT_3D('',#670,#671,#672);
#591=COLOUR_RGB('',0.69803923368454,0.69803923368454,0.69803923368454);
#592=AXIS2_PLACEMENT_3D('',#673,#674,#675);
#593=COLOUR_RGB('',0.69803923368454,0.69803923368454,0.69803923368454);
#594=CARTESIAN_POINT('',(0.0,0.0,8.0));
#595=CARTESIAN_POINT('',(0.0,31.5,8.0));
#596=VECTOR('',#676,1.0);
#597=CARTESIAN_POINT('',(8.0,0.0,8.0));
#598=VECTOR('',#677,1.0);
#599=COLOUR_RGB('',0.69803923368454,0.69803923368454,0.69803923368454);
#600=CARTESIAN_POINT('',(0.0,0.0,0.0));
#601=CARTESIAN_POINT('',(8.0,0.0,0.0));
#602=VECTOR('',#678,1.0);
#603=CARTESIAN_POINT('',(0.0,31.5,0.0));
#604=VECTOR('',#679,1.0);
#605=COLOUR_RGB('',0.69803923368454,0.69803923368454,0.69803923368454);
#606=CARTESIAN_POINT('',(0.0,0.0,4.0));
#607=VECTOR('',#680,1.0);
#608=COLOUR_RGB('',0.69803923368454,0.69803923368454,0.69803923368454);
#609=COLOUR_RGB('',0.69803923368454,0.69803923368454,0.69803923368454);
#610=DIRECTION('',(-0.0,-0.0,-1.0));
#611=CARTESIAN_POINT('',(6.0,8.0,3.5));
#612=DIRECTION('',(0.0,-0.0,1.0));
#613=DIRECTION('',(1.0,0.0,0.0));
#614=DIRECTION('',(-0.0,0.0,1.0));
#615=CARTESIAN_POINT('',(6.0,8.0,0.0));
#616=DIRECTION('',(0.0,0.0,1.0));
#617=DIRECTION('',(1.0,0.0,0.0));
#618=DIRECTION('',(-0.0,-0.0,-1.0));
#619=CARTESIAN_POINT('',(6.0,55.0,3.5));
#620=DIRECTION('',(0.0,-0.0,1.0));
#621=DIRECTION('',(1.0,0.0,0.0));
#622=DIRECTION('',(-0.0,0.0,1.0));
#623=CARTESIAN_POINT('',(6.0,55.0,0.0));
#624=DIRECTION('',(0.0,0.0,1.0));
#625=DIRECTION('',(1.0,0.0,0.0));
#626=DIRECTION('',(-0.0,-0.0,-1.0));
#627=CARTESIAN_POINT('',(6.0,8.0,8.0));
#628=DIRECTION('',(0.0,0.0,-1.0));
#629=DIRECTION('',(1.0,0.0,0.0));
#630=DIRECTION('',(-0.0,0.0,1.0));
#631=CARTESIAN_POINT('',(6.0,8.0,3.5));
#632=DIRECTION('',(0.0,0.0,-1.0));
#633=DIRECTION('',(1.0,0.0,0.0));
#634=DIRECTION('',(-0.0,-0.0,-1.0));
#635=CARTESIAN_POINT('',(6.0,55.0,8.0));
#636=DIRECTION('',(0.0,0.0,-1.0));
#637=DIRECTION('',(1.0,0.0,0.0));
#638=DIRECTION('',(-0.0,0.0,1.0));
#639=CARTESIAN_POINT('',(6.0,55.0,3.5));
#640=DIRECTION('',(0.0,0.0,-1.0));
#641=DIRECTION('',(1.0,0.0,0.0));
#642=DIRECTION('',(-0.707106781186547,-0.0,-0.707106781186547));
#643=DIRECTION('',(0.0,1.0,0.0));
#644=DIRECTION('',(0.707106781186547,-0.0,0.707106781186547));
#645=DIRECTION('',(0.0,-1.0,0.0));
#646=DIRECTION('',(0.0,0.0,-1.0));
#647=DIRECTION('',(0.0,1.0,0.0));
#648=DIRECTION('',(0.0,0.0,-1.0));
#649=DIRECTION('',(1.0,0.0,0.0));
#650=DIRECTION('',(0.0,0.0,-1.0));
#651=DIRECTION('',(-1.0,0.0,0.0));
#652=CARTESIAN_POINT('',(6.0,55.0,3.5));
#653=DIRECTION('',(0.0,0.0,-1.0));
#654=DIRECTION('',(1.0,0.0,0.0));
#655=CARTESIAN_POINT('',(6.0,55.0,8.0));
#656=DIRECTION('',(0.0,0.0,-1.0));
#657=DIRECTION('',(1.0,0.0,0.0));
#658=CARTESIAN_POINT('',(6.0,55.0,3.5));
#659=DIRECTION('',(0.0,-0.0,1.0));
#660=DIRECTION('',(1.0,0.0,0.0));
#661=CARTESIAN_POINT('',(6.0,8.0,3.5));
#662=DIRECTION('',(0.0,0.0,-1.0));
#663=DIRECTION('',(1.0,0.0,0.0));
#664=CARTESIAN_POINT('',(6.0,8.0,8.0));
#665=DIRECTION('',(0.0,0.0,-1.0));
#666=DIRECTION('',(1.0,0.0,0.0));
#667=CARTESIAN_POINT('',(6.0,8.0,3.5));
#668=DIRECTION('',(0.0,-0.0,1.0));
#669=DIRECTION('',(1.0,0.0,0.0));
#670=CARTESIAN_POINT('',(6.0,55.0,0.0));
#671=DIRECTION('',(0.0,0.0,1.0));
#672=DIRECTION('',(1.0,0.0,0.0));
#673=CARTESIAN_POINT('',(6.0,8.0,0.0));
#674=DIRECTION('',(0.0,0.0,1.0));
#675=DIRECTION('',(1.0,0.0,0.0));
#676=DIRECTION('',(0.0,-1.0,0.0));
#677=DIRECTION('',(1.0,0.0,0.0));
#678=DIRECTION('',(-1.0,0.0,0.0));
#679=DIRECTION('',(0.0,1.0,0.0));
#680=DIRECTION('',(0.0,0.0,-1.0));
ENDSEC;
END-ISO-10303-21;
